Cifra Club

Warriors

Imagine Dragons

Cifra: Principal (violão e guitarra)
exibições 110.186
Tom: G
[Intro] Em  D  Em  B

        Em            D         C              B
As a child you would wait, and watch from far away
        Em                      D            C                   B
But you always knew that you'd be the one to work while they all play
   Em           D       C                 B
In youth, you'd lay... awake at night and scheme
   Em                   D
Of all the things that you would change
   C               B
But it was just a dream

Em      G               C    B
Here we are don't turn away, now
Em         G             C          B
We are the Warriors that built this town
Em      G               C    B
Here we are don't turn away, now
Em         G             C          B          Em
We are the Warriors that built this town from dust

              Em
The time will come when you will have to rise
   G                      Am
Above the best and prove yourself
        B4        B
Your spirit never dies
  Em            D       C               B
Farewell, I've gone to take my throne above
          C                  G                 Am          B
But don't weep for me, cause this will be the labor of my love

Em      C               Am    B
Here we are don't turn away, now
Em         G             C          B
We are the Warriors that built this town
Em      C               Am    B
Here we are don't turn away, now
C          G             Am         B          Am      B     Em
We are the Warriors that built this town from dust

[Solo]

E|---------------------------------------|
B|---------------------------------------|
G|---------------------------------------|
D|-7b9-9-9-9r7p5----7b9-9r7-7~-----------|
A|----------------7----------------------|
E|---------------------------------------|

E|---------------------------------------|
B|---------------------------------------|
G|---------------------------------------|
D|-7b9-9-9-9r7p5----7b9-9r7-7~-----------|
A|----------------7----------------------|
E|---------------------------------------|

E|-----------------------------------------------------12p11h12---|
B|--------------------------------------------12p11h12------------|
G|-----------------------------------12p11h12---------------------|
D|-------------------9p8h9--14p13h14------------------------------|
A|-----------10p9h10----------------------------------------------|
E|--12p11h12------------------------------------------------------|

E|-15-14-12---------------------------------------|
B|----------13-12----12-13-16--13-12----12--------|
G|----------------14-----------------14-14b16-----|
D|------------------------------------------------|
A|------------------------------------------------|
E|------------------------------------------------|

E|-------------------------------------------------------------------|
B|-10-10-10-10-10-10-12-12-12-12-12-12-7-7-7-7-7-7-8-8-8-8-8-8-10-10-|
G|-------------------------------------------------------------------|
D|-------------------------------------------------------------------|
A|-------------------------------------------------------------------|
E|-------------------------------------------------------------------|

E|-----------------------------11-11-11-11-11-11-12-12b14-|
B|10-10-10-10-12-12-12-12-12-12---------------------------|
G|--------------------------------------------------------|
D|--------------------------------------------------------|
A|--------------------------------------------------------|
E|--------------------------------------------------------|

Em      C               Am    B
Here we are don't turn away, now
Em         G             C          B
We are the Warriors that built this town
Em      C               Am    B
Here we are don't turn away, now
C          G             Am         B          Am      B     Em
We are the Warriors that built this town from dust
Acordes para:
    Composição: Dan Reynolds Colaboração e revisão:

    0 comentários

    mostrar mais comentários

    Conseguiu tocar?

    49 tocaram 6 ainda não

    Grave um vídeo tocando Warriors e mande pra gente!

    00:00 / 00:00
    outros vídeos desta música
    repetir qualidade Automático
    Outros vídeos desta música
    00:00 / 00:00
    Automático
    OK