Cifra Club

Satellites And Astronauts

In Flames

Cifra: Principal (violão e guitarra)
Selo Cifra Club: esta cifra foi revisada para atender aos critérios oficiais da nossa Equipe de Qualidade.
tom: Am
          C5                   G/B                  Bb5                   F
      x 7 9 x x x          x 6 9 x x x          x 5 7 x x x          x 0 7 x x x

          G#5
      x 3 5 x x x

Gtr I (C F A# D# G C) - 'Clean Guitar'
Gtr II (C F A# D# G C) - 'Clean Guitar 2'
Gtr III (C F A# D# G C) - 'Distorted Guitar 1'
Gtr IV (C F A# D# G C) - 'Distorted Guitar 2'
Gtr V (C F A# D# G C) - 'Distorted Guitar 3'

   Intro (Riff 1)
    Q.=78
    Em            Am                Em
   6/8
    Gtr I
                          |-3-|
    E E E E E E   E E E E S S S E   E E E E E E   E E E E E E
||--------------|-----------------|-------------|--------------||
||o-------0-----|-------1-0h1p0---|-------0-----|-------------o||
||------0-----0-|-----2---------2-|-----0-----0-|---0-2-----2--||
||----------2---|---2-------------|---2-----2---|-0-----0-4----||
||o---2---------|-0---------------|-------------|-------------o||
||--0-----------|-----------------|-0-----------|--------------||


    Em                   Am
    Gtr I
                                     |-3-|
      E  E  E   E  E E   E  E  E  E  S S S  E
||---------------------|----------------------|
||o-------------0------|----------1--0h1p0----|
||----------0--------0-|-------2------------2-|
||-----------------2---|----2-----------------|
||o------2-------------|-0--------------------|
||----0----------------|----------------------|
|
|   Gtr II
|     E  E  E  +Q.       E  E  E  E  E      E
||---------------------|----------------------|
||o--------------------|----------------------|
||--/14S12-12-(12)-----|---16S14-14S12S====14-|
||--/16S14-14-(14)-----|---17S16-16S14S====16-|
||o--------------------|----------------------|
||---------------------|----------------------|


  Em                                        C5
                                            Gtr III
    E  E  E   E  E E   E  E  E  E  E  E     H.        +H.
E|--------------------|-------------------| |---------|--------|
B|-------------0------|------------------o| |---------|--------|
G|---------0--------0-|----0--2--------2--| |-5-------|-(5)----|
D|------2---------2---|-0--------0--4-----| |-5-------|-(5)----|
A|--------------------|------------------o| |-3-------|-(3)----|
E|---0----------------|-------------------| |---------|--------|
|
|                                           Gtr IV
|   E  E  E  +Q.       E  E  E  E  E  E     H.        +H.
E|--------------------|-------------------| |---------|--------|
B|--------------------|------------------o| |---------|--------|
G|-/14S12-12-(12)-----|---12S11-14p12p11--| |-5-------|-(5)----|
D|-/16S14-14-(14)-----|---14S12-12--------| |-5-------|-(5)----|
A|--------------------|------------------o| |-3-------|-(3)----|
E|--------------------|-------------------| |---------|--------|


   Riff 2
                E5                        E5
    PM--------|               PM--------|
    S S S S S S S S S S S S   S S S S S S S S S S S S
||--------------------------|-------------------------|
||o-------------------------|-------------------------|
||--------------------------|-------------------------|
||--------------2-2-2-2-2-2-|-------------2-2-2-2-2-2-|
||o-------------2-2-2-2-2-2-|-------------2-2-2-2-2-2-|
||--0-0---0---0-0-0-0-0-0-0-|-0-0---0---0-0-0-0-0-0-0-|


              D5
  PM--------|
  S S S S S S S S S S S S   S S S S E S S S S E
E|-------------------------|----------------------| |
B|-------------------------|---------3---------5-o| |
G|-------------7-7-7-7-7-7-|---------0---------5--| |
D|-------------7-7-7-7-7-7-|----------------------| |
A|-5-5---5---5-5-5-5-5-5-5-|-2-2---2---3-3---3---o| |
E|-------------------------|----------------------| |


               E5                         E5
  PM---------|               PM---------|
  S  S S S S S S S S S S S   S  S S S S S S S S S S S
E|--------------------------|--------------------------|
B|--------------------------|--------------------------|
G|--------------------------|--------------------------|
D|--------------2-2-2-2-2-2-|--------------2-2-2-2-2-2-|
A|--------------2-2-2-2-2-2-|--------------2-2-2-2-2-2-|
E|-0--0---0---0-0-0-0-0-0-0-|-0--0---0---0-0-0-0-0-0-0-|
|
| Gtr IV
|                            ~~
| Q.           E   E   E     Q.           E   E   E
E|--------------------------|--------------------------|
B|--------------8---7---8---|--------------8---7---8---|
G|--------------------------|--------------------------|
D|--------------------------|-9------------------------|
A|--------------------------|--------------------------|
E|--------------------------|--------------------------|


               D5
  PM---------|
  S  S S S S S S S S S S S   S S S   S   E S S S S E
E|--------------------------|----------------------------|
B|--------------------------|-------------3---------5----|
G|--------------7-7-7-7-7-7-|-------------0---------5----|
D|--------------7-7-7-7-7-7-|----------------------------|
A|-5--5---5---5-5-5-5-5-5-5-|-2-2-----2-----3-3---3------|
E|--------------------------|----------------------------|
|
| ~~
|                                |--3--|
| Q.           E   E   E     E   S S   S E E   E   E
E|--------------------------|----------------------------|
B|-7--------------------7---|-8---7h8p==7-----------7----|
G|--------------7---9-------|-------------7-7---9--------|
D|--------------------------|----------------------------|
A|--------------------------|----------------------------|
E|--------------------------|----------------------------|


               E5                         E5
  PM---------|               PM---------|
  S  S S S S S S S S S S S   S  S S S S S S S S S S S
E|--------------------------|--------------------------|
B|--------------------------|--------------------------|
G|--------------------------|--------------------------|
D|--------------2-2-2-2-2-2-|--------------2-2-2-2-2-2-|
A|--------------2-2-2-2-2-2-|--------------2-2-2-2-2-2-|
E|-0--0---0---0-0-0-0-0-0-0-|-0--0---0---0-0-0-0-0-0-0-|
|
| ~~                         ~~
| Q.           E   E   E     Q.           E   E   E
E|--------------------------|--------------------------|
B|--------------8---7---8---|--------------8---7---8---|
G|-9------------------------|--------------------------|
D|--------------------------|-9------------------------|
A|--------------------------|--------------------------|
E|--------------------------|--------------------------|


               D5                                       C5
  PM---------|
  S  S S S S S S S S S S S   S S S   S   E S  S S S E    H.        +H.
E|--------------------------|--------------------------|----------|----------------|
B|--------------------------|-------------3----------5-|----------|----------------|
G|--------------7-7-7-7-7-7-|-------------0----------5-|--5-------|-(5)------------|
D|--------------7-7-7-7-7-7-|--------------------------|--5-------|-(5)------------|
A|-5--5---5---5-5-5-5-5-5-5-|-2-2-----2-----3--3---3---|--3-------|-(3)------------|
E|--------------------------|--------------------------|----------|----------------|
|
| ~~                                       ~~~~~~~~~~~~~~~~~~~~~~~~~~~~
|                                |--3--|
| Q.           E   E   E     E   S S   S E Q.           +H.        +H     +Q
E|--------------------------|--------------------------|----------|----------------|
B|-7--------------------7---|-8---7h8p==7--------------|----------|----------------|
G|--------------7---9-------|-------------7-9----------|-(9)------|-(9)----(9)----|
D|--------------------------|--------------------------|----------|----------------|
A|--------------------------|--------------------------|----------|----------------|
E|--------------------------|--------------------------|----------|----------------|


   Verse (Riff 1)
    Em            Am                Em
    Gtr I
                          |-3-|
    E E E E E E   E E E E S S S E   E E E E E E   E E E E E E
||--------------|-----------------|-------------|--------------||
||o-------0-----|-------1-0h1p0---|-------0-----|-------------o||
||------0-----0-|-----2---------2-|-----0-----0-|---0-2-----2--||
||----------2---|---2-------------|---2-----2---|-0-----0-4----||
||o---2---------|-0---------------|-------------|-------------o||
||--0-----------|-----------------|-0-----------|--------------||


  Em                   Am                   Em
                                 |-3-|
    E  E  E   E  E E   E  E E E  S S S  E    E  E E E  E E   E E E E E E
E|--------------------|--------------------|----------------|-------------|
B|-------------0------|--------1--0h1p0----|---------0------|-------------|
G|---------0--------0-|------2-----------2-|-------0------0-|---0-2-----2-|
D|----------------2---|----2---------------|-----2------2---|-0-----0-4---|
A|------2-------------|-0------------------|----------------|-------------|
E|---0----------------|--------------------|--0-------------|-------------|
|
| Gtr II
|   E  E  E  +Q.       Q.     E  E      E    Q.     Q.       W
E|--------------------|--------------------|----------------|-------------|
B|--------------------|--------------------|----------------|-------------|
G|-/14S12-12-(12)-----|--------------------|----------------|-------------|
D|-/16S14-14-(14)-----|----------12h====14-|----------------|-------------|
A|--------------------|--------------------|-14-------------|-------------|
E|--------------------|--------------------|----------------|-------------|


  Em                   Am                   Em
                                 |-3-|
    E  E  E   E  E E   E  E E E  S S S  E    E  E E E  E E   E E E E E E
E|--------------------|--------------------|----------------|-------------|
B|-------------0------|--------1--0h1p0----|---------0------|-------------|
G|---------0--------0-|------2-----------2-|-------0------0-|---0-2-----2-|
D|----------------2---|----2---------------|-----2------2---|-0-----0-4---|
A|------2-------------|-0------------------|----------------|-------------|
E|---0----------------|--------------------|--0-------------|-------------|
|
|   E  E  E  +Q.       Q.     E  E      E    Q.     Q.       W
E|--------------------|--------------------|----------------|-------------|
B|--------------------|--------------------|----------------|-------------|
G|-/17S16-16-(16)-----|----------14h====16-|----------------|-------------|
D|-/19S17-17-(17)-----|----------14--------|-17-------------|-------------|
A|--------------------|--------------------|----------------|-------------|
E|--------------------|--------------------|----------------|-------------|


 Bridge (Riff 2)
               E5                         E5
  Gtr III
  PM---------|               PM---------|
  S  S S S S S S S S S S S   S  S S S S S S S S S S S
E|--------------------------|--------------------------|
B|--------------------------|--------------------------|
G|--------------------------|--------------------------|
D|--------------2-2-2-2-2-2-|--------------2-2-2-2-2-2-|
A|--------------2-2-2-2-2-2-|--------------2-2-2-2-2-2-|
E|-0--0---0---0-0-0-0-0-0-0-|-0--0---0---0-0-0-0-0-0-0-|
|
| Gtr IV
|                            ~~
| Q.           E   E   E     Q.           E   E   E
E|--------------------------|--------------------------|
B|--------------8---7---8---|--------------8---7---8---|

E|--------------------------|--------------------------|
B|--------------------------|-9------------------------|
G|--------------------------|--------------------------|
D|--------------------------|--------------------------|


               D5
  PM---------|
  S  S S S S S S S S S S S   S S S   S   E S S S S E
E|--------------------------|----------------------------|
B|--------------------------|-------------3---------5----|
G|--------------7-7-7-7-7-7-|-------------0---------5----|
D|--------------7-7-7-7-7-7-|----------------------------|
A|-5--5---5---5-5-5-5-5-5-5-|-2-2-----2-----3-3---3------|
E|--------------------------|----------------------------|
|
| ~~
|                                |--3--|
| Q.           E   E   E     E   S S   S E E   E   E
E|--------------------------|----------------------------|
B|-7--------------------7---|-8---7h8p==7-----------7----|
G|--------------7---9-------|-------------7-7---9--------|
D|--------------------------|----------------------------|
A|--------------------------|----------------------------|
E|--------------------------|----------------------------|


               E5                         E5
  PM---------|               PM---------|
  S  S S S S S S S S S S S   S  S S S S S S S S S S S
E|--------------------------|--------------------------|
B|--------------------------|--------------------------|
G|--------------------------|--------------------------|
D|--------------2-2-2-2-2-2-|--------------2-2-2-2-2-2-|
A|--------------2-2-2-2-2-2-|--------------2-2-2-2-2-2-|
E|-0--0---0---0-0-0-0-0-0-0-|-0--0---0---0-0-0-0-0-0-0-|
|
| ~~                         ~~
| Q.           E   E   E     Q.           E   E   E
E|--------------------------|--------------------------|
B|--------------8---7---8---|--------------8---7---8---|
G|-9------------------------|--------------------------|
D|--------------------------|-9------------------------|
A|--------------------------|--------------------------|
E|--------------------------|--------------------------|


               D5
  PM---------|
  S  S S S S S S S S S S S   S S S   S   E S  S S S E
E|--------------------------|-----------------------------|
B|--------------------------|-------------3----------5----|
G|--------------7-7-7-7-7-7-|-------------0----------5----|
D|--------------7-7-7-7-7-7-|-----------------------------|
A|-5--5---5---5-5-5-5-5-5-5-|-2-2-----2-----3--3---3------|
E|--------------------------|-----------------------------|
|
| ~~                                       ~~
|                                |--3--|
| Q.           E   E   E     E   S S   S E Q.
E|--------------------------|-----------------------------|
B|-7--------------------7---|-8---7h8p==7-----------------|
G|--------------7---9-------|-------------7-9-------------|
D|--------------------------|-----------------------------|
A|--------------------------|-----------------------------|
E|--------------------------|-----------------------------|


   Chorus (Riff 3)
     E  E  E E E  E    E  E  E  E  E  E
||------------------|-------------------|
||o-----------------|-------------------|
||------------------|-------------------|
||---9--9--9-9-9--9-|--9--9--9--9--9--9-|
||o--7--7--7-7-7--7-|--6--6--6--6--6--6-|
||------------------|-------------------|
|
|    E  E  E E E  E    E  E  E  E  E  E
||------------------|-------------------|
||o-----------------|-------------------|
||--11-11-11-7-9-11-|-12-12-12-11-11-11-|
||---9--9--9-9-9--9-|--9--9--9--9--9--9-|
||o-----------------|-------------------|
||------------------|-------------------|


                    1.               2.
   E  E  E E E  E    E E E E E E     E E E E E E
E|-----------------|---------------| |--------------|
B|-----------------|--------------o| |--------------|
G|-----------------|---------------| |--------------|
D|--7--7--7-7-7--7-|--7-7-7-7-7-7--| |-5-5-5-5-5-5--|
A|--5--5--5-5-5--5-|--0-0-0-0-0-0-o| |-3-3-3-3-3-3--|
E|-----------------|---------------| |--------------|
|
|  E  E  E E E  E    E E E E E E     E E E E E E
E|-----------------|---------------| |--------------|
B|-----------------|--------------o| |-5-8-7-5-8-7--|
G|-11-11-11-7-9-11-|--9-9-9-9-9-9--| |-5-5-5-5-5-5--|
D|--7--7--7-7-7--7-|--7-7-7-7-7-7--| |--------------|
A|-----------------|--------------o| |--------------|
E|-----------------|---------------| |--------------|


     E  E  E E E  E    E  E  E  E  E  E
||------------------|-------------------|
||o-----------------|-------------------|
||------------------|-------------------|
||---9--9--9-9-9--9-|--9--9--9--9--9--9-|
||o--7--7--7-7-7--7-|--6--6--6--6--6--6-|
||------------------|-------------------|
|
|    E  E  E E E  E    E  E  E  E  E  E
||------------------|-------------------|
||o-----------------|-------------------|
||--11-11-11-7-9-11-|-12-12-12-11-11-11-|
||---9--9--9-9-9--9-|--9--9--9--9--9--9-|
||o-----------------|-------------------|
||------------------|-------------------|


                    1.              2.
                                    C5
   E  E  E E E  E   E E E E E E     H.
E|-----------------|--------------| |--------------|
B|-----------------|-------------o| |--------------|
G|-----------------|--------------| |--------------|
D|--7--7--7S9-7--7-|-7-7-7-7-7-7--| |-5------------|
A|--5--5--5-5-5--5-|-0-0-0-0-0-0-o| |-3------------|
E|-----------------|--------------| |--------------|
|
|  E  E  E E E  E   E E E E E E     E  E E E E E
E|-----------------|--------------| |--------------|
B|-----------------|-------------o| |-5--8-7-5-8-7-|
G|-11-11-11-7-9-11-|-9-9-9-9-9-9--| |-5--5-5-5-5-5-|
D|--7--7--7-7-7--7-|-7-7-7-7-7-7--| |--------------|
A|-----------------|-------------o| |--------------|
E|-----------------|--------------| |--------------|


 Verse 2 (Riffs 4, 1)
  B5        A5
                         Gtr I
  H.        E E E Q.     Q   Q   E E   E E E +Q.     Q  E +Q.     E E E E  E E
E|---------|------------|-----3---3p2-|-----2-(2)---|----3-(3)---|---2-2-2----0-|
B|---------|------------|-------------|-5p0-3-(3)---|----3-(3)---|--------------|
G|---------|------------|-------------|-------------|------------|--------------|
D|-4-------|-2----------|-2-----------|-------------|------------|--------------|
A|-2-------|-0----------|-------------|-------------|------------|--------------|
E|---------|------------|-------------|-------------|------------|--------------|
|
|                        Gtr II
| H.        E E E Q.     Q.    E Q     Q   E +Q.     W            E Q   Q.
E|---------|------------|-------------|-------------|------------|--------------|
B|---------|------------|---------3---|-----3-(3)---|------------|---2---2------|
G|---------|------------|---------2---|-2-----------|------------|---2---2------|
D|-4-------|-2----------|-------------|-------------|------------|-0------------|
A|-2-------|-0----------|-------------|-------------|------------|--------------|
E|---------|------------|-------------|-------------|------------|--------------|

  Q   Q   E E   E E E +Q.      Q   E +Q.     Q  Q.   E
E|-----3---3p2-|-----2-(2)---|------3-(3)---|----2----0-|
B|-------------|-5p0-3-(3)---|------3-(3)---|---------2-|
G|-------------|-------------|--------------|-----------|
D|-2-----------|-------------|--------------|-----------|
A|-------------|-------------|--------------|-----------|
E|-------------|-------------|--------------|-----------|
|
| Q.    E Q     Q   E +Q.      E E E +Q.     W
E|-------------|-------------|--------------|-----------|
B|---------3---|-----3-(3)---|-/8-5-5-(5)---|-----------|
G|---------2---|-2-----------|--------------|-----------|
D|-------------|-------------|--------------|-----------|
A|-------------|-------------|--------------|-----------|
E|-------------|-------------|--------------|-----------|


    Em            Am                Em
                          |-3-|
    E E E E E E   E E E E S S S E   E E E E E E   E E E E E E
||--------------|-----------------|-------------|--------------||
||o-------0-----|-------1-0h1p0---|-------0-----|-------------o||
||------0-----0-|-----2---------2-|-----0-----0-|---0-2-----2--||
||----------2---|---2-------------|---2-----2---|-0-----0-4----||
||o---2---------|-0---------------|-------------|-------------o||
||--0-----------|-----------------|-0-----------|--------------||


  Em                   Am                   Em
                                 |-3-|
    E  E  E   E  E E   E  E E E  S S S  E    E  E E E  E  E    E  E E E E E
E|--------------------|--------------------|-----------------|---------------|
B|-------------0------|--------1--0h1p0----|---------0-------|---------------|
G|---------0--------0-|------2-----------2-|-------0-------0-|-----0-2-----2-|
D|----------------2---|----2---------------|-----2------2----|--0------0-4---|
A|------2-------------|-0------------------|-----------------|---------------|
E|---0----------------|--------------------|--0--------------|---------------|
|
| Gtr II
|                                                              ~~~
|   E  E  E  +Q.       Q.     E  E      E    Q.     E  E  E    H.
E|--------------------|--------------------|-----------------|---------------|
B|--------------------|--------------------|-----------------|---------------|
G|-/14S12-12-(12)-----|--------------------|-----------------|---------------|
D|-/16S14-14-(14)-----|----------12h====14-|-----------------|---------------|
A|--------------------|--------------------|-14--------12----|-12------------|
E|--------------------|--------------------|--------------15-|---------------|


  Em                   Am
                                 |-3-|
    E  E  E   E  E E   E  E E E  S S S  E
E|--------------------|--------------------|
B|-------------0------|--------1--0h1p0----|
G|---------0--------0-|------2-----------2-|
D|----------------2---|----2---------------|
A|------2-------------|-0------------------|
E|---0----------------|--------------------|
|
|   E  E  E  +Q.       Q.     E  E      E
E|--------------------|--------------------|
B|--------------------|--------------------|
G|-/17S16-16-(16)-----|----------14h====16-|
D|-/19S17-17-(17)-----|----------14--------|
A|--------------------|--------------------|
E|--------------------|--------------------|


  Em                                C5
                                    Gtr III
   E  E E E  E  E    E  E E E E E   H.        +H.
E|-----------------|---------------|---------|--------|
B|---------0-------|---------------|---------|--------|
G|-------0-------0-|-----0-2-----2-|-5-------|-(5)----|
D|-----2------2----|--0------0-4---|-5-------|-(5)----|
A|-----------------|---------------|-3-------|-(3)----|
E|--0--------------|---------------|---------|--------|
|
|                                   Gtr IV
|                    ~~~
|  Q.     E  E  E    H.             H.        +H.
E|-----------------|---------------|---------|--------|
B|-----------------|---------------|---------|--------|
G|-----------14S16-|---------------|-5-------|-(5)----|
D|-17--------------|-19------------|-5-------|-(5)----|
A|-----------------|---------------|-3-------|-(3)----|
E|-----------------|---------------|---------|--------|


 Bridge 2 (Riff 2)
               E5                         E5
  PM---------|               PM---------|
  S  S S S S S S S S S S S   S  S S S S S S S S S S S
E|--------------------------|--------------------------|
B|--------------------------|--------------------------|
G|--------------------------|--------------------------|
D|--------------2-2-2-2-2-2-|--------------2-2-2-2-2-2-|
A|--------------2-2-2-2-2-2-|--------------2-2-2-2-2-2-|
E|-0--0---0---0-0-0-0-0-0-0-|-0--0---0---0-0-0-0-0-0-0-|
|
|                            ~~
| Q.           E   E   E     Q.           E   E   E
E|--------------------------|--------------------------|
B|--------------8---7---8---|--------------8---7---8---|
G|--------------------------|--------------------------|
D|--------------------------|-9------------------------|
A|--------------------------|--------------------------|
E|--------------------------|--------------------------|


               D5
  PM---------|
  S  S S S S S S S S S S S   S S S   S   E S S S S E
E|--------------------------|----------------------------|
B|--------------------------|-------------3---------5----|
G|--------------7-7-7-7-7-7-|-------------0---------5----|
D|--------------7-7-7-7-7-7-|----------------------------|
A|-5--5---5---5-5-5-5-5-5-5-|-2-2-----2-----3-3---3------|
E|--------------------------|----------------------------|
|
| ~~
|                                |--3--|
| Q.           E   E   E     E   S S   S E E   E   E
E|--------------------------|----------------------------|
B|-7--------------------7---|-8---7h8p==7-----------7----|
G|--------------7---9-------|-------------7-7---9--------|
D|--------------------------|----------------------------|
A|--------------------------|----------------------------|
E|--------------------------|----------------------------|


               E5                         E5
  PM---------|               PM---------|
  S  S S S S S S S S S S S   S  S S S S S S S S S S S
E|--------------------------|--------------------------|
B|--------------------------|--------------------------|
G|--------------------------|--------------------------|
D|--------------2-2-2-2-2-2-|--------------2-2-2-2-2-2-|
A|--------------2-2-2-2-2-2-|--------------2-2-2-2-2-2-|
E|-0--0---0---0-0-0-0-0-0-0-|-0--0---0---0-0-0-0-0-0-0-|
|
| ~~                         ~~
| Q.           E   E   E     Q.           E   E   E
E|--------------------------|--------------------------|
B|--------------8---7---8---|--------------8---7---8---|
G|-9------------------------|--------------------------|
D|--------------------------|-9------------------------|
A|--------------------------|--------------------------|
E|--------------------------|--------------------------|


               D5
  PM---------|
  S  S S S S S S S S S S S   S S S   S   E S  S S S E
E|--------------------------|-----------------------------|
B|--------------------------|-------------3----------5----|
G|--------------7-7-7-7-7-7-|-------------0----------5----|
D|--------------7-7-7-7-7-7-|-----------------------------|
A|-5--5---5---5-5-5-5-5-5-5-|-2-2-----2-----3--3---3------|
E|--------------------------|-----------------------------|
|
| ~~                                       ~~
|                                |--3--|
| Q.           E   E   E     E   S S   S E Q.
E|--------------------------|-----------------------------|
B|-7--------------------7---|-8---7h8p==7-----------------|
G|--------------7---9-------|-------------7-9-------------|
D|--------------------------|-----------------------------|
A|--------------------------|-----------------------------|
E|--------------------------|-----------------------------|


   Chorus 2 (Riff 3)
     E  E  E E E  E    E  E  E  E  E  E
||------------------|-------------------|
||o-----------------|-------------------|
||------------------|-------------------|
||---9--9--9-9-9--9-|--9--9--9--9--9--9-|
||o--7--7--7-7-7--7-|--6--6--6--6--6--6-|
||------------------|-------------------|
|
|    E  E  E E E  E    E  E  E  E  E  E
||------------------|-------------------|
||o-----------------|-------------------|
||--11-11-11-7-9-11-|-12-12-12-11-11-11-|
||---9--9--9-9-9--9-|--9--9--9--9--9--9-|
||o-----------------|-------------------|
||------------------|-------------------|


                    1.              2.
   E  E  E E E  E   E E E E E E     E E E E E E
E|-----------------|--------------| |-------------|
B|-----------------|-------------o| |-------------|
G|-----------------|--------------| |-------------|
D|--7--7--7-7-7--7-|-7-7-7-7-7-7--| |-5-5-5-5-5-5-|
A|--5--5--5-5-5--5-|-0-0-0-0-0-0-o| |-3-3-3-3-3-3-|
E|-----------------|--------------| |-------------|
|
|  E  E  E E E  E   E E E E E E     E E E E E E
E|-----------------|--------------| |-------------|
B|-----------------|-------------o| |-5-8-7-5-8-7-|
G|-11-11-11-7-9-11-|-9-9-9-9-9-9--| |-5-5-5-5-5-5-|
D|--7--7--7-7-7--7-|-7-7-7-7-7-7--| |-------------|
A|-----------------|-------------o| |-------------|
E|-----------------|--------------| |-------------|


     E  E  E E E  E    E  E  E  E  E  E
||------------------|-------------------|
||o-----------------|-------------------|
||------------------|-------------------|
||---9--9--9-9-9--9-|--9--9--9--9--9--9-|
||o--7--7--7-7-7--7-|--6--6--6--6--6--6-|
||------------------|-------------------|
|
|    E  E  E E E  E    E  E  E  E  E  E
||------------------|-------------------|
||o-----------------|-------------------|
||--11-11-11-7-9-11-|-12-12-12-11-11-11-|
||---9--9--9-9-9--9-|--9--9--9--9--9--9-|
||o-----------------|-------------------|
||------------------|-------------------|


                    1.              2.
                                    C5
   E  E  E E E  E   E E E E E E     H.
E|-----------------|--------------| |--------------|
B|-----------------|-------------o| |--------------|
G|-----------------|--------------| |--------------|
D|--7--7--7S9-7--7-|-7-7-7-7-7-7--| |-5------------|
A|--5--5--5-5-5--5-|-0-0-0-0-0-0-o| |-3------------|
E|-----------------|--------------| |--------------|
|
|  E  E  E E E  E   E E E E E E     E  E E E E E
E|-----------------|--------------| |--------------|
B|-----------------|-------------o| |-5--8-7-5-8-7-|
G|-11-11-11-7-9-11-|-9-9-9-9-9-9--| |-5--5-5-5-5-5-|
D|--7--7--7-7-7--7-|-7-7-7-7-7-7--| |--------------|
A|-----------------|-------------o| |--------------|
E|-----------------|--------------| |--------------|


 Guitar Solo
  B5        A5                         E5                          E5
                       PM----------|                   PM--------|
  H.        H.         S S S S S   S   S S S S S S     S S S S S S S S S S S S
E|---------|---------|------------------------------|---------------------------|
B|---------|---------|------------------------------|---------------------------|
G|---------|---------|------------------------------|---------------------------|
D|-4-------|-2-------|------------------2-2-2-2-2-2-|---------------2-2-2-2-2-2-|
A|-2-------|-0-------|------------------2-2-2-2-2-2-|---------------2-2-2-2-2-2-|
E|---------|---------|--0-0---0-----0---0-0-0-0-0-0-|---0-0---0---0-0-0-0-0-0-0-|
|
|                              |--3--|
| H.        H.         E   E   S S   S E   E   E       E   E   E   E   E   E
E|---------|---------|------------------------------|---------------------------|
B|---------|---------|------8---7h8p==7-----7---8---|-/10---8---7---8---7-------|
G|---------|---------|-/9---------------9-----------|-----------------------9---|
D|-4-------|-2-------|------------------------------|---------------------------|
A|-2-------|-0-------|------------------------------|---------------------------|
E|---------|---------|------------------------------|---------------------------|
|
| Gtr V
|                              |--3--|
| W         W          E   E   S S   S E   E   E       E   E   E   E   E   E
E|---------|---------|------------------------------|---------------------------|
B|---------|---------|------8---7h8p==7-----7---8---|-/10---8---7---8---7-------|
G|---------|---------|-/9---------------9-----------|-----------------------9---|
D|---------|---------|------------------------------|---------------------------|
A|---------|---------|------------------------------|---------------------------|
E|---------|---------|------------------------------|---------------------------|


              D5
  PM--------|
  S S S S S S S S S S  S S    S  S  S  S  E     S  S  S  S  E
E|--------------------------|----------------------------------------|
B|--------------------------|--------------3-----------------5-------|
G|-------------7-7-7-7--7-7-|--------------0-----------------5-------|
D|-------------7-7-7-7--7-7-|----------------------------------------|
A|-5-5---5---5-5-5-5-5--5-5-|--2--2-----2--------3--3-----3----------|
E|--------------------------|----------------------------------------|
|
| E   E   E   E   E    E      S  S  S  S  S  S  S  S  S  S  S  S
E|--------------------------|-12-------------------------------------|
B|-----7-------8-------10---|----15p13-12-------12-------------------|
G|-7-------7-------7--------|-------------14p12----14p12-11----------|
D|--------------------------|-------------------------------14p12----|
A|--------------------------|----------------------------------------|
E|--------------------------|----------------------------------------|
|
| E   E   E   E   E    E      S  S  S  S  S  S  S  S  S  S  S  S
E|--------------------------|-15-14p12-------------------------------|
B|-----7-------8-------10---|----------15-13p12-15-13p12-------------|
G|-7-------7-------7--------|----------------------------14-12p11----|
D|--------------------------|----------------------------------------|
A|--------------------------|----------------------------------------|
E|--------------------------|----------------------------------------|


                       E5                                    E5
   PM-------------|                      PM----------------|
   S S  S S  S    S     S S  S S  S S    S S  S    S     S S  S S  S    S     S S
E|-------------------------------------|-------------------------------------------|
B|-------------------------------------|-------------------------------------------|
G|-------------------------------------|-------------------------------------------|
D|-----------------------2-2--2-2--2-2-|-----------------------2-2--2----2-----2-2-|
A|-----------------------2-2--2-2--2-2-|-----------------------2-2--2----2-----2-2-|
E|--0-0----0-------0-----0-0--0-0--0-0-|--0-0-------0-------0--0-0--0----0-----0-0-|
|
|            |---3---|                        |---3---|            |---3---|
|  E    E    S  S    S  E    E    E      E    S  S    S  E    E    S  S    S  E
E|-------------------------------------|-------------------------------------------|
B|-------------------------------------|-------------------------------------------|
G|------12---11h12p==11------11---12S==| =14---12h14p==12-11---12---11h12p==11------|
D|-14-------------------14-------------|--------------------------------------14---|
A|-------------------------------------|-------------------------------------------|
E|-------------------------------------|-------------------------------------------|
|
|            |---3---|                        |---3---|            |---3---|
|  E    E    S  S    S  E    E    E      E    S  S    S  E    E    S  S    S  E
E|-------------------------------------|-------------------------------------------|
B|------12---10h12p==10------10---12S==| =13---12h13p==12-10---12---10h12p==10------|
G|-12-------------------12-------------|--------------------------------------12---|
D|-------------------------------------|-------------------------------------------|
A|-------------------------------------|-------------------------------------------|
E|-------------------------------------|-------------------------------------------|


                 D5
   PM----------|
   S S  S S  S S  S S  S S  S S    S S  S    S     E  S  S S S E
E|-------------------------------|----------------------------------|
B|-------------------------------|------------------3-----------5---|
G|-----------------7-7--7-7--7-7-|------------------0-----------5---|
D|-----------------7-7--7-7--7-7-|----------------------------------|
A|--5-5----5----5--5-5--5-5--5-5-|--2-2-------2--------3--3---3-----|
E|-------------------------------|----------------------------------|
|
|                                                     ~~~
|                                       |---3---|
|  E    E    E    E    E    E      E    S  S    S  E  Q.
E|-------------------------------|----------------------------------|
B|-------------------------------|----------------------------------|
G|-------------------------------|-12---11h12p==11------------------|
D|-12--------12---14---12---14---|-----------------14-12------------|
A|------12-----------------------|----------------------------------|
E|-------------------------------|----------------------------------|
|
|                                                     ~~~
|                                       |---3---|
|  E    E    E    E    E    E      E    S  S    S  E  Q.
E|-------------------------------|----------------------------------|
B|-------------------------------|-12---10h12p==10------------------|
G|-11--------11---12---11---12---|-----------------12-11------------|
D|------12-----------------------|----------------------------------|
A|-------------------------------|----------------------------------|
E|-------------------------------|----------------------------------|


  D5                E5                F#5                  G5       A5
                                                    PM|
  E  E E E E E       E E E   E  E E    E   E  E  E  E  E    E  E  E E  E E
E|-----------------|-----------------|--------------------|-----------------|
B|-----------------|-----------------|--------------------|-----------------|
G|-----------------|-----------------|--------------------|-----------------|
D|-7--7-7-7-7-7----|--9-9-9---9--9-9-|-11--11-11-11-11-11-|-12-12-12-2--2-2-|
A|-5--5-5-5-5-5----|--7-7-7---7--7-7-|--9---9--9--9--9--9-|-10-10-10-0--0-0-|
E|-----------------|-----------------|--------------------|-----------------|
|
| ~~                         ~~~~~~~~~~~~~                          ~~
| Q.     E E S  S    Q   S S Q.       +Q.        E  E  E    E  E  E Q.
E|-----------------|-----------------|---------------7--8-|--8--7-----------|
B|--------7-8-8h10-|-10---8p7-8------|-(8)-------10-------|--------8--------|
G|-7---------------|-----------------|--------------------|----------7------|
D|-----------------|-----------------|--------------------|-----------------|
A|-----------------|-----------------|--------------------|-----------------|
E|-----------------|-----------------|--------------------|-----------------|
|
| ~~                         ~~~~~~~~~~~~~                          ~~
| Q.     E E S  S    Q   S S Q.       +Q.        E  E  E    E  E  E Q.
E|-----------------|-----------------|---------------7--8-|--8--7-----------|
B|--------7-8-8h10-|-10---8p7-8------|-(8)-------10-------|--------8--------|
G|-7---------------|-----------------|--------------------|----------7------|
D|-----------------|-----------------|--------------------|-----------------|
A|-----------------|-----------------|--------------------|-----------------|
E|-----------------|-----------------|--------------------|-----------------|


  C5               D5        B5      E
   E   E E E E E   E E     E E E E   E  E E E   E E    E    E E E E E
E|----------------|-----------------|----------------|-----------------|
B|----------------|-----------------|----------------|-----------------|
G|----------------|-----------------|----------------|-----------------|
D|--5---5-5-5-5-5-|-7-7-----7-4-4-4-|----------------|-----------------|
A|--3---3-3-3-3-3-|-5-5-----5-2-2-2-|-7--7-7-7---7-7-|--7----7-7-7-7-7-|
E|----------------|-----------------|-0--0-0-0---0-0-|--0----0-0-0-0-0-|
|
|  ~~~~                              ~~
|                    |-3-|
| +Q.      E E E   E S S S E E E E   Q.     E   E E    H.
E|----------------|-----------------|--------7--10-7-|-10b12r==========|
B|------------7-8-|-8-7h8p7-------7-|----------------|-----------------|
G|-(7)-----9-----|---------9-7-----|-9--------------|-----------------|
D|----------------|-------------9---|----------------|-----------------|
A|----------------|-----------------|----------------|-----------------|
E|----------------|-----------------|----------------|-----------------|
|
| Gtr V
|  ~~~~                              ~~
|                    |-3-|
| +Q.      E E E   E S S S E E E E   Q.     Q.         W
E|------------5-7-|-7-5h7p5-------5-|----------------|-----------------|
B|----------8-----|---------8-7-----|-8--------------|-----------------|
G|-(7)-----------|-------------7---|----------------|-----------------|
D|----------------|-----------------|----------------|-----------------|
A|----------------|-----------------|----------------|-----------------|
E|----------------|-----------------|----------------|-----------------|


  D5                 E5
   E  E E  E  E  E    E  E        E  E  E E
E|------------------|------------------------|
B|------------------|------------------------|
G|------------------|------------------------|
D|--7--7-7--7--7--7-|--9--9--------9--9--9-9-|
A|--5--5-5--5--5--5-|--7--7--------7--7--7-7-|
E|------------------|------------------------|
|
| Gtrs IV, V
|  ~~~
|                        |--3--|
|  Q.      E  E  E    E  S  S  S  E  Q.
E|---------14-15-17-|-17-15h17p15-14-15------|
B|-15---------------|------------------------|
G|------------------|------------------------|
D|------------------|------------------------|
A|------------------|------------------------|
E|------------------|------------------------|


  F#5                  G5                A5
                PM|
   E   E  E  E  E  E    E     E     E     E     E     E
E|--------------------|-------------------------------------|
B|--------------------|-------------------------------------|
G|--------------------|-------------------------------------|
D|-11--11-11-11-11-11-|-12----12----12-----2-----2-----2----|
A|--9---9--9--9--9--9-|-10----10----10-----0-----0-----0----|
E|--------------------|-------------------------------------|
|
|  ~~~
|  Q.        E  E  E    S  S  S  S  S  S  S  S  S  S  S  S
E|-----------17-19-20-|-20-19-17----------------------------|
B|-19-----------------|----------20-19-17-20-19-17----------|
G|--------------------|----------------------------19-17-16-|
D|--------------------|-------------------------------------|
A|--------------------|-------------------------------------|
E|--------------------|-------------------------------------|


  C5                 D5             B5
   E  E E  E  E  E    E  E        E  E  E  E
E|------------------|-------------------------|
B|------------------|-------------------------|
G|------------------|-------------------------|
D|--5--5-5--5--5--5-|--7--7--------7--4--4--4-|
A|--3--3-3--3--3--3-|--5--5--------5--2--2--2-|
E|------------------|-------------------------|
|
|  ~~~
|                        |--3--|
|  Q.      E  E  E    E  S  S  S  E  E  E  E
E|---------12-14-15-|-15-14h15p14-12-------14-|
B|------------------|----------------15-12----|
G|-17---------------|-------------------------|
D|------------------|-------------------------|
A|------------------|-------------------------|
E|------------------|-------------------------|
|
| Gtr V
|  ~~~
|                        |--3--|
|  Q.      E  E  E    E  S  S  S  E  E  E  E
E|------------17-19-|-19-17h19p17----------17-|
B|---------20-------|-------------20-19-------|
G|-17---------------|-------------------19----|
D|------------------|-------------------------|
A|------------------|-------------------------|
E|------------------|-------------------------|


 Chorus 3 (Riff 3)
  Gtr V
   ~~~~~~~~~~~~~~~~~~~~~~~
   H.                 +H            +Q         W                W
E|-12---------------|-(12)----------(12)----|-----------------|-------------|
B|-20---------------|-(20)----------(20)----|-----------------|-------------|
G|------------------|------------------------|-----------------|-------------|
D|------------------|------------------------|-----------------|-------------|
A|------------------|------------------------|-----------------|-------------|
E|------------------|------------------------|-----------------|-------------|
|
| Gtr III
|  E   E  E E E  E     E   E  E  E   E    E    E  E  E E E  E   E E E E E E
E|------------------|------------------------|-----------------|-------------|
B|------------------|------------------------|-----------------|-------------|
G|------------------|------------------------|-----------------|-------------|
D|--9---9--9-9-9--9-|---9---9--9--9---9----9-|--7--7--7-7-7--7-|-7-7-7-7-7-7-|
A|--7---7--7-7-7--7-|---6---6--6--6---6----6-|--5--5--5-5-5--5-|-0-0-0-0-0-0-|
E|------------------|------------------------|-----------------|-------------|
|
| Gtr IV
|  E   E  E E E  E     E   E  E  E   E    E    E  E  E E E  E   E E E E E E
E|------------------|------------------------|-----------------|-------------|
B|------------------|------------------------|-----------------|-------------|
G|-11--11-11-7-9-11-|--12--12-12-11--11---11-|-11-11-11-7-9-11-|-9-9-9-9-9-9-|
D|--9---9--9-9-9--9-|---9---9--9--9---9----9-|--7--7--7-7-7--7-|-7-7-7-7-7-7-|
A|------------------|------------------------|-----------------|-------------|
E|------------------|------------------------|-----------------|-------------|

   E  E  E E E  E    E  E  E  E  E  E    E  E  E E E  E   E E E E E E
E|-----------------|-------------------|-----------------|-------------|
B|-----------------|-------------------|-----------------|-------------|
G|-----------------|-------------------|-----------------|-------------|
D|--9--9--9-9-9--9-|--9--9--9--9--9--9-|--7--7--7-7-7--7-|-5-5-5-5-5-5-|
A|--7--7--7-7-7--7-|--6--6--6--6--6--6-|--5--5--5-5-5--5-|-3-3-3-3-3-3-|
E|-----------------|-------------------|-----------------|-------------|
|
|  E  E  E E E  E    E  E  E  E  E  E    E  E  E E E  E   E E E E E E
E|-----------------|-------------------|-----------------|-------------|
B|-----------------|-------------------|-----------------|-5-8-7-5-8-7-|
|-11-11-11-7-9-11-|-12-12-12-11-11-11-|-11-11-11-7-9-11-|-5-5-5-5-5-5-|
E|--9--9--9-9-9--9-|--9--9--9--9--9--9-|--7--7--7-7-7--7-|-------------|
B|-----------------|-------------------|-----------------|-------------|
G|-----------------|-------------------|-----------------|-------------|


     E  E  E E E  E    E  E  E  E  E  E
||------------------|-------------------|
||o-----------------|-------------------|
||------------------|-------------------|
||---9--9--9-9-9--9-|--9--9--9--9--9--9-|
||o--7--7--7-7-7--7-|--6--6--6--6--6--6-|
||------------------|-------------------|
|
|    E  E  E E E  E    E  E  E  E  E  E
||------------------|-------------------|
||o-----------------|-------------------|
||--11-11-11-7-9-11-|-12-12-12-11-11-11-|
||---9--9--9-9-9--9-|--9--9--9--9--9--9-|
||o-----------------|-------------------|
||------------------|-------------------|


                    1.              2.
                                    C5
   E  E  E E E  E   E E E E E E     H.
E|-----------------|--------------| |--------------|
B|-----------------|-------------o| |--------------|
G|-----------------|--------------| |--------------|
D|--7--7--7S9-7--7-|-7-7-7-7-7-7--| |-5------------|
A|--5--5--5-5-5--5-|-0-0-0-0-0-0-o| |-3------------|
E|-----------------|--------------| |--------------|
|
|  E  E  E E E  E   E E E E E E     E  E E E E E
E|-----------------|--------------| |--------------|
B|-----------------|-------------o| |-5--8-7-5-8-7-|
G|-11-11-11-7-9-11-|-9-9-9-9-9-9--| |-5--5-5-5-5-5-|
D|--7--7--7-7-7--7-|-7-7-7-7-7-7--| |--------------|
A|-----------------|-------------o| |--------------|
E|-----------------|--------------| |--------------|


   Outro
    Gtr I
    H.        H.        H.        H.
||--2-------|-3-------|-2-------|---------|
||o---------|---------|---------|---------|
||--4-------|-4-------|-2-------|-5-------|
||----------|---------|---------|-5-------|
||o---------|---------|---------|---------|
||----------|---------|---------|---------|
|
|   Gtr II
|   H.        H.        H.        H.
||----------|---------|---------|---------|
||o---------|---------|---------|---------|
||--4-------|-4-------|-2-------|-5-------|
||--2-------|-1-------|-0-------|---------|
||o---------|---------|---------|---------|
||----------|---------|---------|---------|


  H.        H.        H.        H.
E|-2-------|-3-------|-2-------|--------| |
B|---------|---------|---------|-------o| |
G|-4-------|-4-------|-2-------|-5------| |
D|---------|---------|---------|-5------| |
A|---------|---------|---------|-------o| |
E|---------|---------|---------|--------| |
|
| H.        H.        H.        H.
E|---------|---------|---------|--------| |
B|---------|---------|---------|-------o| |
G|-4-------|-4-------|-2-------|--------| |
D|-2-------|-1-------|-0-------|-5------| |
A|---------|---------|---------|-3-----o| |
E|---------|---------|---------|--------| |

  H.        H.        H.        H.        H.        H.        H.        H.
E|-2-------|-3-------|-2-------|---------|-2-------|-3-------|-2-------|-------*|
B|---------|---------|---------|-1-------|---------|---------|---------|-1-----*|
G|-4-------|-4-------|-2-------|-0-------|-4-------|-4-------|-2-------|-0-----*|
D|---------|---------|---------|---------|---------|---------|---------|-------*|
A|---------|---------|---------|---------|---------|---------|---------|-------*|
E|---------|---------|---------|---------|---------|---------|---------|-------*|
|
| H.        H.        H.        H.        H.        H.        H.        H.
E|---------|---------|---------|---------|---------|---------|---------|-------*|
B|---------|---------|---------|---------|---------|---------|---------|-------*|
G|-4-------|-4-------|-2-------|-5-------|-4-------|-4-------|-2-------|-------*|
D|-2-------|-1-------|-0-------|---------|-2-------|-1-------|-0-------|-5-----*|
A|---------|---------|---------|---------|---------|---------|---------|-3-----*|
E|---------|---------|---------|---------|---------|---------|---------|-------*|
Outros vídeos desta música
    18 exibições
      • ½ Tom
      • Am
      • Bbm
      • Bm
      • Cm
      • C#m
      • Dm
      • Ebm
      • Em
      • Fm
      • F#m
      • Gm
      • G#m
    • Adicionar à lista

    Afinação da cifra

    Afinador online

      0 comentários

      Ver todos os comentários

      Entre para o Cifra Club PRO

      Tenha acesso a benefícios exclusivos no App e no Site

      • Chega de anúncios

      • Mais recursos no app do Afinador

      • Atendimento Prioritário

      • Aumente seu limite de lista

      • Ajude a produzir mais conteúdo

      Cifra Club Pro

      Aproveite o Cifra Club com benefícios exclusivos e sem anúncios
      Cifra Club Pro
      Aproveite o Cifra Club com benefícios exclusivos e sem anúncios
      OK