Cifra Club

Starforsaken

In Flames

Cifra: Principal (violão e guitarra)
Selo Cifra Club: esta cifra foi revisada para atender aos critérios oficiais da nossa Equipe de Qualidade.
tom: Em
 RIFF 1           PA Y 2 TIMES
E|-----------------------------|
B|-----------------------------| GTRS
G|-----------------------------| 1&2
D|------4-5-4------2----4-5-9--|
A|-2----2-3-2------0----2-3-7--|
E|-0---------------------------|
         


 RIFF 2                                              
E|----------------------------------------------------------|
B|----------------------------------------------------------| GTR
G|----------------------------------------------------------|
D|----------------------------------------------------------|
A|-7"----------------------------------------7"-------------|
E|---------------7"------------5"---------------------------|
|                                                          |
|                                                          |
E|----------------------------------------------------------|
B|----------------------------------------------------------| GTR
G|-----------------------------2"--4"-5"-2"------2"---------|
D|-2"--4"-5"-2"------2"----------------------5"-----5"-2"---|
A|---------------5"-----5"-2"-------------------------------|
E|----------------------------------------------------------|

E|----------------------------------------------------------|
B|----------------------------------------------------------| GTR
G|----------------------------------------------------------|
D|----------------------------------------------------------|
A|-7"----------------------------------------7"-----7-------|
E|---------------7"------------5"---------------------8-7-5-|
|                                                          |
|                                                          |
E|----------------------------------------------------------|
B|----------------------------------------------------------| GTR
G|-----------------------------2"--4"-5"-2"-----2"----------|
D|-2"--4"-5"-2"------2"----------------------5"----5--------|
A|---------------5"-----5"-2"-------------------------------|
E|----------------------------------------------------------|

 RIFF 3                                               
E|----------------------------------------------------------------|
B|----------------------------------------------------------------| GTR
G|----------------------------------------------------------------|
D|-----7"--5"-8"-5"-8"------7"--5"-8"-5"-8"------5"--3"-6"-3"-6"--|
A|-5"-------------------5"-------------------3"-------------------|
E|----------------------------------------------------------------|
|                                                                |
|                                                                |
E|----------------------------------------------------------------|
B|----------------------------------------------------------------| GTR
G|----------------------------------------------------------------|
D|----------------------3"----------------------------------------|
A|-5"-----------------------------------------3"-----------00-3"--|
E|----------------------------------------------------------------|

E|----------------------------------------------------------------|
B|----------------------------------------------------------------| GTR
G|----------------------------------------------------------------|
D|-----5"--3"-6"-3"-6"------7"--5"-8"-5"-8"------7"--5"-8"-5"-8"--|
A|-3"-------------------5"-------------------5"-------------------|
E|----------------------------------------------------------------|
|                                                                |
|                                                                |
E|----------------------------------------------------------------|
B|----------------------------------------------------------------| GTR
G|----------------------------------------------------------------|
D|-1"----------------------------------------3"-------------------|
A|----------------------5"----------------------------------------|
E|----------------------------------------------------------------|

E|-------------------------------------------|
B|-------------------------------------------| GTR
G|-------------------------------------------|
D|-----5"--3"-6"-3"-6"-------5"--3"-6"-3"-6"-|
A|-3"-------------------3"-------------------|
E|-------------------------------------------|
|                                           |
|                                           |
E|-------------------------------------------|
B|-------------------------------------------| GTR
G|-------------------------------------------|
D|-3"-------------------1"-------------------|
A|-------------------------------------------|
E|-------------------------------------------|

 RIFF 4    PA Y 2 TIMES
E|-----------------------|
B|-----------------------| GTR
G|-----------------------|
D|-------9"----------7"--|
A|-7"----------5"--------|
E|-----------------------|
|                       |
|                       |
E|-----------------------|
B|-----------------------| GTR
G|-----------------------|
D|-----------------------|
A|-7"---10"----9"----8"--|
E|-----------------------|

 RIFF 5                
E|---------------------------------|
B|---------------------------------| GTR
G|---------------------------------|
D|---------------------------------|
|-2-2-2-2-2-2-2-2-2-2-2-2-2-2-2-2-|
|-0-0-0-0-0-0-0-0-0-0-0-0-0-0-0-0-|
  . . . . . . . . . . . . . . . .



 
 RIFF 6                                                  PA Y 2 TIMES
E|--------------------------------------------------------------------|
B|--------------------------------------------------------------------| GTR
G|--------------------------------------------------------------------|
D|----------------------------2-2-------------------------------------|
A|-2--2-2-2-2-2-2-2-2-2-2-2-5"------2-2-2-2-2-2-2-2-2-2-2-2-2--2"-3-3-|
E|-0--0-0-0-0-0-0-0-0-0-0-0---------0-0-0-0-0-0-0-0-0-0-0-0-0---------|
|    . . . . . . . . . . .         . . . . . . . . . . . . .         |
|                                                                    |
E|--------------------------------------------------------------------|
B|--------------------------------------------------------------------| GTR
G|--------------------------------------------------------------------|
D|--------------------------5"-4"-5"-------------------------2"----2"-|
A|-2--2-2-2-2-2-2-2-2-2-2-2---------2--2-2-2-2-2-2-2-2-2-2-2----5"----|
E|-0--0-0-0-0-0-0-0-0-0-0-0---------0--0-0-0-0-0-0-0-0-0-0-0----------|
     . . . . . . . . . . .         . . . . . . . . . . . .  

 RIFF 7                                                   
E|--------------------------------------------------------------------|
B|--------------------------------------------------------------------| GTR
G|--------------------------------------------------------------------|
D|-2"--4"-2"-5"--4"-2"-----2"--------2"--4"-2"-5"--4"-2"-----2"-------|
A|---------------------5"-----5"-3"----------------------5"-----5"-3"-|
E|--------------------------------------------------------------------|
|                                                                    |
|                                                                    |
E|--------------------------------------------------------------------|
B|--------------------------------------------------------------------| GTR
G|--------------------------------------------------------------------|
D|-9-------------7---------5---------9-------------7------------------|
A|-7-------------5---------3---------7-------------5---------7--------|
E|-----------------------------------------------------------5--------|

E|--------------------------------------------------------------------|
B|--------------------------------------------------------------------| GTR
G|--------------------------------------------------------------------|
D|-2"--4"-2"-5"--4"-2"-----2"--------2"--4"-2"-5"--4"-2"-----2"-------|
A|---------------------5"-----5"-3"----------------------5"-----5"-3"-|
E|--------------------------------------------------------------------|
|                                                                    |
|                                                                    |
E|--------------------------------------------------------------------|
B|--------------------------------------------------------------------| GTR
G|--------------------------------------------------------------------|
D|-5"--7"-5"-9"--7"-5"-4"--5"-4"-2"--5"--7"-5"-9"--7"-5"-4"--5"-4"-2"-|
A|--------------------------------------------------------------------|
E|--------------------------------------------------------------------|
 

 PA Y RIFF 6  2 TIMES
 PA Y RIFF 7  2 TIMES

 RIFF 8                                    
E|-----------------------------------------------------|
B|-----------------------------------------------------| GTR
G|---------------2"-----4"-------------------2"-----4"-|
D|-2"--4"-5"-2"-----4"---------2"--4"-5"-2"-----4"-----|
A|-----------------------------------------------------|
E|-----------------------------------------------------|
|                                                     |
|                                                     |
E|-----------------------------------------------------|
B|-----------------------------------------------------| GTR
G|-----------------------------------------------------|
D|-9-8-9-----------------------9-8-9-------------------|
A|-7-6-7-----------------------7-6-7-------------------|
E|-----------------------------------------------------|

 RIFF 9
E|-------------------------------------------|
B|-------------------------------------------| GTR
G|-------4"---5"--------------4"---5"--------|
D|--5"-------------------5"------------------|
A|-----------------6"-------------------6"---|
E|-------------------------------------------|
|                                           |
|                                           |
E|-------------------------------------------|
B|-------------------------------------------| GTR
G|-------------------------------------------|
D|-------------------------------------------|
A|--7"--------------------7"-----------------|
E|-----------5"----7"------------5"-----7"---|

 RIFF 10
E|------------------------------------------------------|
B|------------------------------------------------------| GTR
G|---------------5"-----7"--------------------5"-----7"-|
D|-5"--7"-8"-5"------7"---------5"--7"-8"-5"------7"----|
A|------------------------------------------------------|
E|------------------------------------------------------|
|                                                      |
|                                                      |
E|------------------------------------------------------|
B|------------------------------------------------------| GTR
G|------------------------------------------------------|
D|-12-11-12--------------------12-11-12-----------------|
A|-10--9-10--------------------10--9-10-----------------|
E|------------------------------------------------------|

 RIFF 11
E|------------------------------------------------|
B|-------3"---4"-----------------3"---4"----------| GTR
G|-3"-----------------------3"--------------------|
D|-----------------4"----------------------4"-----|
A|------------------------------------------------|
E|------------------------------------------------|
|                                                |
|                                                |
E|------------------------------------------------|
B|------------------------------------------------| GTR
G|-------------5"------7"---------------5"-----7"-|
D|-5"--7"--8"------7"-------5"--7"--8"-----7"-----|
A|------------------------------------------------|
E|------------------------------------------------|


 PA Y RIFF 8  1 TIME

 RIFF 12
E|------------------------------------------------|
B|------------------------------------------------| GTR
G|--------4"----5"----------------4"---5"---------|
D|--5"----------------------5"--------------------|
A|---------------------6"----------------------6"-|
E|------------------------------------------------|
|                                                |
|                                                |
E|------------------------------------------------|
B|------------------------------------------------| GTR
G|-------------5"------7"---------------5"-----7"-|
D|-"5--7"--8"------7"-------"5--7"--8"-----7"-----|
A|------------------------------------------------|
E|------------------------------------------------|


 PA Y RIFF 8  1 TIME

 RIFF 13 W/G  O
E|----------------------------------------------------------------|
B|----------------------------------------------------------------| GTR
G|----------------------------------------------------------------|
D|----------------------------------------------------------------|
A|--7"-------------7"--------------------3"--5"----------3"--5"---|
E|--------5"--7"---------5"--7"----3"--------------3"-------------|
|                                                                |
|                                                                |
E|----------------------------------------------------------------|
B|----------------------------------------------------------------| GTR
G|---------------------------------------4"--5"----------4"--7"---|
D|---------------------------------5"--------------5"-------------|
A|--7"-------------7"---------------------------------------------|
E|--------5"--7"---------5"--7"-----------------------------------|

 RIFF 8.A
E|-----------------------------------------------------|
B|-----------------------------------------------------| GTR
G|---------------2"-----4"-----------------------------|
D|-2"--4"-5"-2"-----4"---------------------------------|
A|----------------------------7"-6"-7"\----------------|
E|-----------------------------------------------------|
|                                                     |
|                                                     |
E|-----------------------------------------------------|
B|-----------------------------------------------------| GTR
G|-----------------------------------------------------|
D|-9-8-9-------------------------9-8-9\----------------|
A|-7-6-7-------------------------7-6-7\----------------|
E|-----------------------------------------------------|
Outros vídeos desta música
    1 exibições
      • ½ Tom
      • Am
      • Bbm
      • Bm
      • Cm
      • C#m
      • Dm
      • Ebm
      • Em
      • Fm
      • F#m
      • Gm
      • G#m
    • Adicionar à lista

    Afinação da cifra

    Afinador online

      0 comentários

      Ver todos os comentários

      Entre para o Cifra Club PRO

      Tenha acesso a benefícios exclusivos no App e no Site

      • Chega de anúncios

      • Mais recursos no app do Afinador

      • Atendimento Prioritário

      • Aumente seu limite de lista

      • Ajude a produzir mais conteúdo

      Cifra Club Pro

      Aproveite o Cifra Club com benefícios exclusivos e sem anúncios
      Cifra Club Pro
      Aproveite o Cifra Club com benefícios exclusivos e sem anúncios
      OK