Cifra Club

For You To Know

In Mourning

Cifra: Principal (violão e guitarra)
Selo Cifra Club: esta cifra foi revisada para atender aos critérios oficiais da nossa Equipe de Qualidade.
tom: Bm
E|---------------------------------------|
B|------8---11-----15------15------15----|
G|----0---0----0------0-------0-------0--|
D|--5------------8------12------12-------|
A|---------------------------------------|
E|---------------------------------------|

E|----------------------------------------|
B|------8---11-----16------16------16-----|
G|----0---0----0------0-------0-------0---|
D|--5------------8------13------13--------|
A|----------------------------------------|
E|----------------------------------------|

E|----------------------------------------|
B|------8---11-----15------15------15-----|
G|----0---0----0------0-------0-------0---|
D|--5------------8------12------12--------|
A|----------------------------------------|
E|----------------------------------------|

E|---------------------------------|
B|-20------20-19------14-----------|
G|----0----------0-------(0)-------|
D|------17---------15--------(11)--|
A|---------------------------------|
E|---------------------------------|

Rhytmn guitar (something like this)

E|------------------------------------|
B|------------------------------------|
G|------------------------------------|
D|------------------------------------|
A|------------------------------------|
E|--3-3-3-3--6-3-6---3-3-3-3--6-3-6---|

[FILL AFTER INTRO]

E|----------------------------------|
B|----------------------------------|
G|----------------------------------|
D|----------------------------------|
A|----------------------------------|
E|--1--4--1--4--1----1--4--1--4--1--|

[Verse 1]

"The pen scratches vellum paper... ... Sentence escapes in the mist"

Rhytmn

E|------------------------------------------------|
B|------------------------------------------------|
G|------------------------------------------------|
D|------------------------------------------------|
A|------------------------------------------------|
E|--1--4--1--2--1-----1--4--1--2--1--7--7--7--7---|

E|------------------------------------------------|
B|------------------------------------------------|
G|------------------------------------------------|
D|------------------------------------------------|
A|------------------------------------------------|
E|--1--4--1--2--1-----1--4--1--2--1--5--5--5--5---|

"The pictures of home..."

E|--------------------------------------------|
B|--------------------------------------------|
G|--------------------------------------------|
D|--------------------------------------------|
A|--------------------------------------------|
E|--1--1--1--1--1-----1--1--1--1--7--7--7--7--|

E|--------------------------------------------|
B|--------------------------------------------|
G|--------------------------------------------|
D|--------------------------------------------|
A|--------------------------------------------|
E|--1--1--1--1--1-----1--1--1--1--4--4--4--4--|

E|--------------------------------------------|
B|--------------------------------------------|
G|--------------------------------------------|
D|--------------------------------------------|
A|--------------------------------------------|
E|--1--1--1--1--1-----1--1--1--1--7--7--7--7--|

E|--------------------------------------------|
B|--------------------------------------------|
G|--------------------------------------------|
D|--------------------------------------------|
A|--------------------------------------------|
E|--1--1--1--1--1-----1--1--1--1--0-1---------|

[PD-C HORUS]

"The subtlety of time..." "... never happened that way"

Lead

E|--6--------9--------7-------------------7--|
B|-----7--------7--------7----------7--6-----|
G|--------8--------8--------8--3/4-----------|
D|-------------------------------------------|
A|-------------------------------------------|
E|-------------------------------------------| X 4


Rhytmn

E|-----------------------|
B|-----------------------|
G|-----------------------|
D|--------------4--6-----|
A|---10| ?-10?----4--6-----|
E|---10| ?-0-?----2--4-----|

Not sure about this part...

[Verse as a fill twice]

Rhytmn

E|------------------------------------------------|
B|------------------------------------------------|
G|------------------------------------------------|
D|------------------------------------------------|
A|------------------------------------------------|
E|--1--4--1--2--1-----1--4--1--2--1--7--7--7--7---|

E|------------------------------------------------|
B|------------------------------------------------|
G|------------------------------------------------|
D|------------------------------------------------|
A|------------------------------------------------|
E|--1--4--1--2--1-----1--4--1--2--1--5--5--5--5---|

[Chorus]

"Have I told you about the magpie, my only friend..."

Lead

E|--6--6--6--8--8--8--9--9--9--11--11--11--13--14--13--16--18--18--16--16--13--13--16--16--8--11----|
B|--------------------------------------------------------------------------------------------------|
G|--------------------------------------------------------------------------------------------------|
D|--------------------------------------------------------------------------------------------------|
A|--------------------------------------------------------------------------------------------------|
E|--------------------------------------------------------------------------------------------------|

E|--6--6--6--8--8--8--9--9--9--11--11--11--13--14--13--16--18--18--16--16--13--13--16--16--8--8--8--|
B|--------------------------------------------------------------------------------------------------|
G|--------------------------------------------------------------------------------------------------|
D|--------------------------------------------------------------------------------------------------|
A|--------------------------------------------------------------------------------------------------|
E|--------------------------------------------------------------------------------------------------|

E|--6--6--6--8--8--8--9--9--9--11--11--11--13--14--13--16--18--18--16--16--13--13--16--16--6/8--11--|
B|--------------------------------------------------------------------------------------------------|
G|--------------------------------------------------------------------------------------------------|
D|--------------------------------------------------------------------------------------------------|
A|--------------------------------------------------------------------------------------------------|
E|--------------------------------------------------------------------------------------------------|


Rhytm

E|--------------------------------------------------------|
B|--------------------------------------------------------|
G|--------------------------------------------------------|
D|--9-------------------7----------4-----------------8----|
A|--9-------------------7----------4-----------------8----|
E|--7-------------------5----------2-----------------6----|


    "This is for you to know,     this is for you to feel"

E|--------------------------------------------------------|
B|--------------------------------------------------------|
G|--------------------------------------------------------|
D|--9-------------------7----------4-----------------0----|
A|--9-------------------7----------4-----------------2----|
E|--7-------------------5----------2-----------------3----|

[G  O 1]

E|-------------------------------------------------------------------|
B|-------------------------------------------------------------------|
G|--2/4--6-7-6--------------8^b| end-8-6-8------11-10-8-3-6/8\5--------|
D|--------------9---5/6-8-6-----------------------------------4/6\3--|
A|----------------9--------------------------------------------------|
E|-------------------------------------------------------------------|

E|---------------------------------------------------------------------|
B|---------------------------------------------------------------------|
G|--2/4--6-7-6---------------------------------------------------------|
D|--------------9---5/6-8-6-----------------4-6-8-11-8--11-10-6-8-6-3--|
A|----------------9---------6-4-4-6-6---6-8----------------------------|
E|---------------------------------------------------------------------|

E|----------------------------------|
B|-----------------------------11---|
G|--10-10-10-8-5--5h6p5-8-8/10------|
D|----------------------------------|
A|----------------------------------|
E|----------------------------------|

Rhytmn during solo I couldn't catch reliably :(

[Bridge]

Rhytmn

E|---------------------|
B|---------------------|
G|---------------------|
D|---------------------|
A|--5------------------|
E|----7-5-0-3-5-7-0-0--| x 4

Lead quitar "fill" on third time

E|---------|
B|---8-----|
G|---9-----|
D|---10----|
A|---------|
E|---------|

Then once!

E|------------------------------------------------|
B|------------------------------------------------|
G|------------------------------------------------|
D|------------------------------------------------|
A|------------------------------------------------|
E|--2--2--2--2--2--2-2---2-2-2---2-2--------------|


Rhytmn - whole thing twice

E|------------------------------------------|
B|------------------------------------------|
G|------------------------------------------|
D|------------------------------------------|
A|--5--------------------------------4------|
E|----7-5-0-3-5-7-0-0------0-0-3-5-6---6-5--|

E|-----------------|
B|-----------------|
G|-----------------|
D|-----------------|
A|--5--------------|
E|----7-5-0-3-5-7--|

E|------------------------------------------|
B|------------------------------------------|
G|------------------------------------------|
D|------------------------------------------|
A|--5--------------------------------4------|
E|----7-5-0-3-5-7-0-0------0-0-3-5-6---6-5--|

E|-------------------------------------|
B|-------------------------------------|
G|-------------------------------------|
D|-----------------8-8-8--2-2-2-6-6-5--|
A|--5--------------8-8-8--2-2-2-6-6-5--|
E|----7-5-0-3-5-7--6-6-6--0-0-0-4-4-3--|


[PD-C HORUS]

"The subtlety of time..." "... never happened that way"

Lead

E|--6--------9--------7-------------------7--|
B|-----7--------7--------7----------7--6-----|
G|--------8--------8--------8--3/4-----------|
D|-------------------------------------------|
A|-------------------------------------------|
E|-------------------------------------------| X 4


Rhytmn

E|-----------------------|
B|-----------------------|
G|-----------------------|
D|--------------4--6-----|
A|---10| ?-10?----4--6-----|
E|---10| ?-0-?----2--4-----|


[Verse 2]

[VERSE]

"The sun is setting..."

E|------------------------------------------------|
B|------------------------------------------------|
G|------------------------------------------------|
D|------------------------------------------------|
A|------------------------------------------------|
E|--1--4--1--2--1-----1--4--1--2--1--7--7--7--7---|

E|------------------------------------------------|
B|------------------------------------------------|
G|------------------------------------------------|
D|------------------------------------------------|
A|------------------------------------------------|
E|--1--4--1--2--1-----1--4--1--2--1--5--5--5--5---|

E|------------------------------------------------|
B|------------------------------------------------|
G|------------------------------------------------|
D|------------------------------------------------|
A|------------------------------------------------|
E|--1--4--1--2--1-----1--4--1--2--1--7--7--7--7---|

                                                "...I will write it down for you"

E|------------------------------------------------|
B|------------------------------------------------|
G|------------------------------------------------|
D|------------------------------------------------|
A|------------------------------------------------|
E|--1--4--1--2--1-----1--4--1--2--1---------------|


"Keep it with your poems..."

E|--------------------------------------------|
B|--------------------------------------------|
G|--------------------------------------------|
D|--------------------------------------------|
A|--------------------------------------------|
E|--1--1--1--1--1-----1--1--1--1--7--7--7--7--|

E|--------------------------------------------|
B|--------------------------------------------|
G|--------------------------------------------|
D|--------------------------------------------|
A|--------------------------------------------|
E|--1--1--1--1--1-----1--1--1--1--4--4--4--4--|

E|--------------------------------------------|
B|--------------------------------------------|
G|--------------------------------------------|
D|--------------------------------------------|
A|--------------------------------------------|
E|--1--1--1--1--1-----1--1--1--1--7--7--7--7--|

E|--------------------------------------------|
B|--------------------------------------------|
G|--------------------------------------------|
D|--------------------------------------------|
A|--------------------------------------------|
E|--1--1--1--1--1-----1--1--1--1--0-1---------|


[Chorus]

"Have I told you about the magpie, my only friend..."

Lead

E|--6--6--6--8--8--8--9--9--9--11--11--11--13--14--13--16--18--18--16--16--13--13--16--16--8--11----|
B|--------------------------------------------------------------------------------------------------|
G|--------------------------------------------------------------------------------------------------|
D|--------------------------------------------------------------------------------------------------|
A|--------------------------------------------------------------------------------------------------|
E|--------------------------------------------------------------------------------------------------|

E|--6--6--6--8--8--8--9--9--9--11--11--11--13--14--13--16--18--18--16--16--13--13--16--16--8--8--8--|
B|--------------------------------------------------------------------------------------------------|
G|--------------------------------------------------------------------------------------------------|
D|--------------------------------------------------------------------------------------------------|
A|--------------------------------------------------------------------------------------------------|
E|--------------------------------------------------------------------------------------------------|

E|--6--6--6--8--8--8--9--9--9--11--11--11--13--14--13--16--18--18--16--16--13--13--16--16--6/8--11--|
B|--------------------------------------------------------------------------------------------------|
G|--------------------------------------------------------------------------------------------------|
D|--------------------------------------------------------------------------------------------------|
A|--------------------------------------------------------------------------------------------------|
E|--------------------------------------------------------------------------------------------------|


Rhytm

E|--------------------------------------------------------|
B|--------------------------------------------------------|
G|--------------------------------------------------------|
D|--9-------------------7----------4-----------------8----|
A|--9-------------------7----------4-----------------8----|
E|--7-------------------5----------2-----------------6----|


    "This is for you to know,     this is for you to feel"

E|--------------------------------------------------------|
B|--------------------------------------------------------|
G|--------------------------------------------------------|
D|--9-------------------7----------4-----------------0----|
A|--9-------------------7----------4-----------------2----|
E|--7-------------------5----------2-----------------3----|


[Outro Solo]

Lead

E|-------------------------------------------------------------------|
B|-------------------------------------------------------------------|
G|--2/4--6-7-6--------------8b-8-6-8------11-10-8-3-6/8\5------------|
D|--------------9---5/6-8-6-------------------------------4/6\3------|
A|----------------9--------------------------------------------------|
E|-------------------------------------------------------------------|

E|---------------------------------------------------------------------|
B|---------------------------------------------------------------------|
G|--2/4--6-7-6---------------------------------------------------------|
D|--------------9---5/6-8-6-----------------4-6-8-11-8--11-10-6-8-6-3--|
A|----------------9---------6-4-4-6-6---6-8----------------------------|
E|---------------------------------------------------------------------|

E|----------------------------------------------------------------------|
B|----------------------------------------------------------------------|
G|--10-10-10-8-5--5h6p5-8-8/10\8--6/8-10-11-10-8-6-5-7-(a| nd let ring)---|
D|----------------------------------------------------------------------|
A|----------------------------------------------------------------------|
E|----------------------------------------------------------------------|

Rhytmn

E|-----------------|
B|-----------------|
G|-----2-----------|
D|--4--2--2--5-----|
A|--4--0--2--5-----|
E|--2-----0--3-----|



************************************

| (n)  Ghost note
| /    Slide up
| \    Slide down
| h    Hammer-on
| p    Pull-off
| b    Bend
Outros vídeos desta música
5 exibições
    • ½ Tom
    • Am
    • Bbm
    • Bm
    • Cm
    • C#m
    • Dm
    • Ebm
    • Em
    • Fm
    • F#m
    • Gm
    • G#m
  • Adicionar à lista

Afinação da cifra

Afinador online

    0 comentários

    Ver todos os comentários

    Entre para o Cifra Club PRO

    Tenha acesso a benefícios exclusivos no App e no Site

    • Chega de anúncios

    • Mais recursos no app do Afinador

    • Atendimento Prioritário

    • Aumente seu limite de lista

    • Ajude a produzir mais conteúdo

    Cifra Club Pro

    Aproveite o Cifra Club com benefícios exclusivos e sem anúncios
    Cifra Club Pro
    Aproveite o Cifra Club com benefícios exclusivos e sem anúncios
    OK