Cifra Club

Circles

Incubus

Cifra: Principal (violão e guitarra)
tom: Bb
Intro(x3)

G------------------ 5-5-5-5-|----------------------------
D------------------ 5-5-5-5-|-----------------0-3h5-5-5
A------5-----5-----3-3-3-3-|--------1--------0-3h5-5-5
D-0-3---0-3--3p0-5-5-5-5-|---0-3---0-3h5-0-3h5-5-5

pre verse(1x)

D-00-00--10-00-00-00--10
A-00-00--10-00-00-00--10
D-00-00--10-00-00-00--10

verse(x4)

G-77-77\5--77-77\5|-10----------
D---------------------|------10--6--3
A-55-55\3--55-55\3|--8---10--6--3
D---------------------|------10--6--3

pre chorus(x4)

G-------55555
D-1-1--55555
A-1-1--33333
D-1-1--55555

chorus

G-7/8\7-7/8\7-7/8\7-7/8\5-55
D--------------------------------
A-5/6\5-5/6\5-5/6\5-5/6\3-33
D-

G-7/8\7-7/8\7-7/8\7-7/8\5-55-5555555
D-------------------------------------------
A-5/6\5-5/6\5-5/6\5-5/6\3-33-3333333
D-


G-7/8\7-7/8\7-7/8\7-7/8\5-55 
D--------------------------------  |
A-5/6\5-5/6\5-5/6\5-5/6\3-33  |
D--------------------------------  

D-3-3-3/88
A-3-3-3/88
D-3-3-3/88

VERSE,PRECHORUS AND CHORUS


BRIDGE

D-5-0-8----5-0-8-3
A-5-0-8----5-0-8-1
D-5-0-8----5-0-8-1

PRECHORUS AND CHORUS THEN INTRO AND 
PRE VERSE(X2)

THATS IT.  ENJOY INCUBUS!
00:00 / 00:00
Outros vídeos desta música
Repetir
Outros vídeos desta música
Composição de Alex Katunich / Brandon Boyd / Chris DJ Kilmore / Jose Antonio Pasillas II / Michael Einziger
Colaboração e revisão:
  • Victor Kendji
11.428 exibições
    • ½ Tom
    • A
    • Bb
    • B
    • C
    • Db
    • D
    • Eb
    • E
    • F
    • F#
    • G
    • Ab
  • Adicionar à lista

    0 comentários

    Ver todos os comentários

    Conseguiu tocar?

    0 Tocaram 0 Ainda não

    Grave um vídeo tocando Circles e nos envie!

    Entre para oCifra Club PRO

    Tenha acesso a benefícios exclusivos no App e no Site

    • Chega de anúncios

    • Prioridade de compra em lançamentos

    • Mais recursos no app do Afinador

    • Atendimento Prioritário

    • Descontos nos produtos Cifra Club

    • Ajude a produzir mais conteúdo

    00:00 / 00:00

    Cifra Club Pro

    Aproveite o Cifra Club com benefícios exclusivos e sem anúncios
    Cifra Club Pro
    Aproveite o Cifra Club com benefícios exclusivos e sem anúncios
    OK