Cifra Club

Aprenda

Breaker 1

Interpol

Cifra: Principal (violão e guitarra)
tom: C
Intro e Primeira Parte:

E|-0---0---0-0-0\\(0)-0//0--0--0--0-0-0-0--|
B|-1---1---1-1-1\\(3)-3//1--1--1--1-1-1-1--|
G|-2---2---2-2-2\\(4)-4//2--2--2--2-2-2-2--| (2x)
D|-2---2---2-2-2\\(4)-4//2--2--2--2-2-2-2--|
A|-0---0---0-0-3\\(5)-5//3--3--3--3-3-3-3p0|
E|-----------------------------------------|

"You seen the way..."

     Dm      Am/C         E       Am
E|-------------------------------------|
B|----------11111111-------------------|
G|-77777777-22222222-11111111-22222222-| 2x
D|-77777777-22222222-22222222-22222222-|
A|-55555555-33333333-22222222-00000000-|
E|-------------------------------------|

"And I fear my deep makeup, the ache inside go away..."  
     Dm      Am/C     Dm       Dm/B     Am       F        E        G
E|----------------------------------------------------------------------------------|
B|----------11111111-------------------11111111-------------------------------------|
G|-77777777-22222222-77777777-77777777-22222222-22222222-11111111-44444444----------|
D|-77777777-22222222-77777777-77777777-22222222-33333333-22222222-55555555----------|
A|-55555555-33333333-55555555-55555555-00000000-33333333-22222222-55555555----------|
E|----------------------------77777777----------11111111----------33333333----------|

Interlúdio: "Come back, come back I'm the warning..."
(Mesmo que a Intro)

E|-0---0---0-0-0\\(0)-0//0--0--0--0-0-0-0--|
B|-1---1---1-1-1\\(3)-3//1--1--1--1-1-1-1--|
G|-2---2---2-2-2\\(4)-4//2--2--2--2-2-2-2--| 3x
D|-2---2---2-2-2\\(4)-4//2--2--2--2-2-2-2--|
A|-0---0---0-0-3\\(5)-5//3--3--3--3-3-3-3p0|
E|-----------------------------------------|

"You see the way how it happens right..."
     Dm      Am/C      E       Am
E|-------------------------------------|
B|----------11111111-------------------|
G|-77777777-22222222-99999999-22222222-| 2x
D|-77777777-22222222-99999999-22222222-|
A|-55555555-33333333-77777777-00000000-|
E|-------------------------------------|

"And I feel my deep makeup..."                                           
     Dm      Am/C     Dm       Dm/B     Am       F        E        G
E|-------------------------------------------------------------------------|
B|----------11111111-------------------11111111----------------------------|
G|-77777777-22222222-77777777-77777777-22222222-22222222-99999999-44444444-|
D|-77777777-22222222-77777777-77777777-22222222-33333333-99999999-55555555-|
A|-55555555-33333333-55555555-55555555-00000000-33333333-77777777-55555555-|
E|----------------------------77777777----------11111111----------33333333-|

 "I'm inclined cuz I've seen my dreams..."
   Am        F        E        G
E|-------------------------------------|
B|-11111111----------------------------|
G|-22222222-22222222-99999999-44444444-|
D|-22222222-33333333-99999999-55555555-|
A|-00000000-33333333-77777777-55555555-|
E|----------11111111----------33333333-|

"...in stride. Just speed..."      "Away..."
   Am        F        E        E7    Am
E|------------------------------------0~|
B|-11111111---------------------------1~|
G|-22222222-22222222-1~---1-1-1~----1-2~|
D|-22222222-33333333-2~---2-2-0~----0-2~|
A|-00000000-33333333-2~---2-2-2~----2-0~|
E|----------11111111-0~---0-0-0~----0---|

         "Come back, come back breaker one..."             
            Am                 Am/C  E     E7    Am    (aumentando)
E|----------0------------------------------------------------0-0-----|
B|----------1---1\(3)3--33/1--11-------------1~----------1-1-1-1-----|
G|------2-2-2---2\(4)4--44/2--22-1--11-1--11-2~------2-2-2-2-2-2-----|
D|----2-2-2-2---2\(4)4--44/2--22-2--22-0--00-2~--2-2-2-2-2-2-2-2-----|
A|----------0h3-3\(5)5--55/3--33-2--22-2--22-0~--0-0-0-0-0-0-0-0-----|
E|-------------------------------0--00-0--00-------------------------|

"Day's begun! Grace become..."
     Dm      Am/C         E       Am
E|-------------------------------------|
B|----------11111111-------------------|
G|-77777777-22222222-99999999-22222222-| 2x
D|-77777777-22222222-99999999-22222222-|
A|-55555555-33333333-77777777-00000000-|
E|-------------------------------------|

"And I've seen my deep makeup..."                                           
     Dm      Am/C     Dm       Dm/B     Am       F        E        G
E|-------------------------------------------------------------------------|
B|----------11111111-------------------11111111----------------------------|
G|-77777777-22222222-77777777-77777777-22222222-22222222-99999999-44444444-|
D|-77777777-22222222-77777777-77777777-22222222-33333333-99999999-55555555-|
A|-55555555-33333333-55555555-55555555-00000000-33333333-77777777-55555555-|
E|----------------------------77777777----------11111111----------33333333-|

 "I'm inclined cuz I need my needs..."
   Am        F        E        G
E|-------------------------------------|
B|-11111111----------------------------|
G|-22222222-22222222-99999999-44444444-|
D|-22222222-33333333-99999999-55555555-|
A|-00000000-33333333-77777777-55555555-|
E|----------11111111----------33333333-|

"...in kind. Just speed..."      "Away..."        "Come back, come back I'm the one..."             
   Am        F        E        E7    Am                          Am/C  E     E7    Am
E|------------------------------------0~----------0------------------------------------|
B|-11111111---------------------------1~----------1---1\(3)3--33/1--11-------------1---|
G|-22222222-22222222-1~---1-1-1~----1-2~------2-2-2---2\(4)4--44/2--22-1--11-1--11-2---|
D|-22222222-33333333-2~---2-2-0~----0-2~----2-2-2-2---2\(4)4--44/2--22-2--22-0--00-2---|
A|-00000000-33333333-2~---2-2-2~----2-0~----------0h3-3\(5)5--55/3--33-2--22-2--22-0---|
E|----------11111111-0~---0-0-0~----0----------------------------------0--00-0--00-----|

      Am            Am/C   E     E7    Am
E|---0------------------------------------0~--|
B|---1---1\(3)3--33/1--11----------------1~---|
G|-2-2---2\(4)4--44/2--22-1--11-1--11---2~----|
D|-2-2---2\(4)4--44/2--22-2--22-0--00--2~-----|
A|---0h3-3\(5)5--55/3--33-2--22-2--22-0~------|
E|------------------------0--00-0--00---------|

Composição de Interpol
Colaboração e revisão:
  • Murilo Breda
211 exibições
    • ½ Tom
    • A
    • Bb
    • B
    • C
    • Db
    • D
    • Eb
    • E
    • F
    • F#
    • G
    • Ab
  • Adicionar à lista

    0 comentários

    Ver todos os comentários

    Conseguiu tocar?

    0 Tocaram 0 Ainda não

    Grave um vídeo tocando Breaker 1 e nos envie!

    00:00 / 00:00
    outros vídeos desta música
    repetir qualidade Automático
    Outros vídeos desta música
    00:00 / 00:00
    Automático

    Cifra Club Pro

    Aproveite o Cifra Club com benefícios exclusivos e sem anúncios
    Cifra Club Pro
    Aproveite o Cifra Club com benefícios exclusivos e sem anúncios
    OK