Cifra Club

Aprenda

Evil

Interpol

Cifra: Principal (violão e guitarra)
tom: F
Guitarra 1- Verso
E|--------------------------------------|
B|--------------------------------------|
G|--5-----------------------------------|
D|--x---8-8-8-8--7---5-5-5-5------------|
A|--8---x-x-x-x--x---7-7-7-7------------|
E|------6-6-6-6--5----------------------|

E|--------------------------------------|
B|--------------------------------------|
G|--5-----------------------------------|
D|--x---8-8-8-8--7----5-5-5-5-5-5-5-5---|
A|--8---x-x-x-x--x----7-7-7-7-7-7-7-7---|
E|------6-6-6-6--5----------------------|

Guitarra 2- Verso
E|--------------------------------------|
B|---------------------8-8--------------|
G|---------------------5-5--------------|
D|--------------------------------------|
A|--------------------------------------|
E|--------------------------------------|

Guitarra 2- Pre-Refrão
E|-----------------------|
B|--8-8-6-6-6-6-6--------|
G|--5-5-5-5-5-5-5--------|
D|-----------------------|
A|-----------------------|
E|-----------------------|

Guitarra 1- Pre-Refrão
E|-------------------------------------|
B|-------------------------------------|
G|-------------------------------------|
D|------------------7(x8)--------------|
A|------------------5------------------|
E|-------------------------------------|

Guitarra 1- Refrão
E|--------------------------------------------------------------------|
B|---------------------------------6-6-6------------------------------|
G|---------------------------------x-x-x------------------------------|
D|--10-10-10-10-10-10-10-10--7-7-7-7-7-7-7-7--------------------------|
A|---8--8--8--8--8--8--8--8--5-5-5-5-5-5-5-5--------------------------|
E|--------------------------------------------6(x8)-5(x8)-8(x8)-6(x8)-|

Guitarra 2- Refrão
E|------------------------------------------------|
B|------------------------------------------------|
G|---10(x8)-5(x8)-15(x8)-14-(x8)------------------|
D|----x-----x------x------x------10(x8)-8(x8)-----|
A|----8-----7-----13-----12------10-----8---------|
E|--------------------------------8-----6---------|

Guitarra 1- Interlúdio 1 (with delay effect)
E|---------------------------------------------------|
B|--10-10-10-10-10-10-10-10--9--9--9--9--7--7--7--7--|
G|--10-10-10-10-10-10-10-10-10-10-10-10-10-10-10-10--|
D|---------------------------------------------------|
A|---------------------------------------------------|
E|---------------------------------------------------|

Guitarra 1- Interlúdio 2
E|------------------------|
B|--10--10-10---9---7--7--|
G|--10--10-10--10--10-10--|
D|------------------------|
A|------------------------|
E|------------------------|

Guitarra 2- Interlúdio 1
E|----------------------------------------------|
B|----------------------------------------------|
G|----------------------------------------------|
D|----------------------------------------------|
A|--8-8-8-8-8-10-10-10-12-12-12-12-12-12-12-12--|
E|----------------------------------------------|

Song Order

Verso
Pre-Refrão
Refrão
Interlúdio 1
Verso
Pre-Refrão
Refrão x2
Interlúdio 2
Interlúdio 1 (w/ Guitarra 2)
Refrão

Letra:
Rosemary
Heaven restores you in life
Coming with me
Through the aging, the fearing and the strife

It's the smiling on the package
It's the faces in the sand
It's the thought that holds you upwards
Embracing me with two hands

Right, we'll take you places
Yeah maybe to the beach
When your friends they do come crying
Tell them now your pleasure's set upon slow-release

Hey wait
Great smile
Sensitive to faith not
Denial
But hey whose on trial?

It took a life span
With no cellmate
The long way back
Saying meanwhile can't we look the other way?

He speaks about travel
Yeah, we think about the land
We smile like all peoples
Feeling real tan

I can take you places
Do you need a new man?
Wipe the pollen from the faces
Make revision to a dream while you wait in the van

Hey wait
Great smile
Sensitive to faith not
Denial
But hey whose on trial?

It took a life spent
With no cellmate
To find a long way back
Saying meanwhile can't we look the other way?
You're weightless, you are exotic
You need something for which to care
Saying meanwhile can't we look the other way?

Leave some shards under the belly
Lay some grease inside my hand
It's a sentimental jury
And the makings of a good plan
You've come to love me nightly
Yeah, you come to hold me tight
Is this motion everlasting
Or do shutters pass in the night?

Rosemary
Oh heaven restores you in life
I spent a lifespan with no cellmate
The long way back
Saying meanwhile can't we look the other way?
You're weightless, semi-erotic
You need someone to take you there
Saying meanwhile can't we look the other way?
Why can't we just play the other game?
Why can't we just look the other way?
Composição de Interpol
Colaboração e revisão:
  • Isis Oliveira
30.699 exibições
    • ½ Tom
    • A
    • Bb
    • B
    • C
    • Db
    • D
    • Eb
    • E
    • F
    • F#
    • G
    • Ab
  • Adicionar à lista

    0 comentários

    Ver todos os comentários

    Conseguiu tocar?

    0 Tocaram 1 Ainda não

    Grave um vídeo tocando Evil e nos envie!

    00:00 / 00:00
    outros vídeos desta música
    repetir qualidade Automático
    Outros vídeos desta música
    00:00 / 00:00
    Automático

    Cifra Club Pro

    Aproveite o Cifra Club com benefícios exclusivos e sem anúncios
    Cifra Club Pro
    Aproveite o Cifra Club com benefícios exclusivos e sem anúncios
    OK