Cifra Club

Aprenda

Pace Is The Trick

Interpol

Cifra: Principal (violão e guitarra)
tom: C
From Our Love To Admire

This is my first tab, so bear with me. I was gutted when nobody
else had tabbed this song, so I thought I'd have a go myself.
It's probably not 100% accurate and I could only work out one
guitar but it gives a good starting point if nothing else!

e|-------------------------------------------------------------|
B|----8-8-6-6-6-----------------------5-5-5---------6-6-6-5-5--|
G|-7-7---------7-7-7-7-7-7-7-7-7---5-5-----5-5-5-5-5---------5-| x6
D|-------------------------------------------------------------|
A|-------------------------------------------------------------|
E|-------------------------------------------------------------|

e|-----5-------5--------------------|
B|-8-8---8-6-6---6-6-6-6-6-5-5-5-6--|
G|--7-7-7-7-7-7-7-7-7-7-7-7-5-5-5-5-| x2
D|----------------------------------|
A|----------------------------------|
E|----------------------------------|

e|-------------------------------------------------------------|
B|----8-8-6-6-6-----------------------5-5-5---------6-6-6-5-5--|
G|-7-7---------7-7-7-7-7-7-7-7-7---5-5-----5-5-5-5-----------5-| x4
D|-------------------------------------------------------------|
A|-------------------------------------------------------------|
E|-------------------------------------------------------------|

e|-----5-------5--------------------|
B|-8-8---8-6-6---6-6-6-6-6-5-5-5-6--|
G|--7-7-7-7-7-7-7-7-7-7-7-7-5-5-5-5-| x4
D|----------------------------------|
A|----------------------------------|
E|----------------------------------|

e|---------------------------------------------------------------|
B|----------------8-8-8-8-8-8-8-8/5---------------5-5-5-5-5-5-5--|
G|-7-7-7-7-7-7-7-7-----------------5-5-5-5-5-5-5-5-------------5-| x3
D|---------------------------------------------------------------|
A|---------------------------------------------------------------|
E|---------------------------------------------------------------|

e|-----5-------5--------------------|
B|-8-8---8-6-6---6-6-6-6-6-5-5-5-6--|
G|--7-7-7-7-7-7-7-7-7-7-7-7-5-5-5-5-| x4
D|----------------------------------|
A|----------------------------------|
E|----------------------------------|

e|-8-8-8-8-7-7-8-7-5-5-8-5-5-5-8-5--|
B|--5-5-5-5-5-5-5---6-6-6-6-6-6-6-6-|
G|----------------------------------| x 8 to fade
D|----------------------------------|
A|----------------------------------|
E|----------------------------------|

Sorry, this is all I can figure out for now!!! Enjoy!
Composição de Interpol
2.401 exibições
    • ½ Tom
    • A
    • Bb
    • B
    • C
    • Db
    • D
    • Eb
    • E
    • F
    • F#
    • G
    • Ab
  • Adicionar à lista

    0 comentários

    Ver todos os comentários

    Conseguiu tocar?

    0 Tocaram 0 Ainda não

    Grave um vídeo tocando Pace Is The Trick e nos envie!

    00:00 / 00:00
    outros vídeos desta música
    repetir qualidade Automático
    Outros vídeos desta música
    00:00 / 00:00
    Automático

    Cifra Club Pro

    Aproveite o Cifra Club com benefícios exclusivos e sem anúncios
    Cifra Club Pro
    Aproveite o Cifra Club com benefícios exclusivos e sem anúncios
    OK