Cifra Club

Fuertemente

Intocable

Cifra: Principal (violão e guitarra)
tom: A

E|------| Intocable-------|
  'Sigo queriendote'

Dedicada a esa persona que que siempre estara en mi corazon aunque las cosas no sucedieron como queriamos.
Por que solo el destino tiene la respuesta a esa pregunta.
Para tii!!!!va esto----!!!!!

Intro:-
A -C#m -D -Bm -E 

((((Repetir 2 veces))))
E|-0--7/9--9-9---9--11--12--11--9------------------------------------------------------------------------------------------|
B|-------------------------------12--10--9-9-9---9--10--12--10--9-----------------------9--10--9-------------------------7-|
G|----------------------------------------------------------------11--9--11-11-11---11------------11--9--11--9-9-9--7h9----|
D|-------------------------------------------------------------------------------------------------------------------------|
A|-------------------------------------------------------------------------------------------------------------------------|
E|-------------------------------------------------------------------------------------------------------------------------|

A 
Dime donde ha quedado,
C#m 
Todo lo que nos juramos,
D 
Dime donde has dejado,
Bm                      E 
El amor que te he entregado.

A 
Dime como has olvidado,
C#m 
Los momentos que pasamos,
D 
Dime como hiciste tu,
Bm                      E 
para no extrañar mis labios.

CORO:-
      A 
Por que yo
             C#m 
no he podido conseguir
                     D 
ni un minuto donde no estes tu
Bm               E 
pasando por mi mente


     A 
Dime tu
            C#m 
como debo olvidar
                  D 
para ya no sentir el dolor
Bm                 E 
que me mata lentamente
D 
siempre nos amamos igual
       Bm             E 
pero tu me pudiste olvidar
E7                        A 
y yo sigo queriendote fuertemente.

Acompañamiento:-
D -E -A -F#m -Bm -E 

1|14------14--14--16--17--16--14----14-14------14-14-------------------------14--16--14----------------------------|
B|----15-------------------------17------17-17-------17-17--14-17-14-17--17--------------17--15--14--15--14--15--14|
G|-----------------------------------------------------------------------------------------------------------------|
D|-----------------------------------------------------------------------------------------------------------------|
A|-----------------------------------------------------------------------------------------------------------------|
E|-----------------------------------------------------------------------------------------------------------------|

E|-----------------------------------------------------------------------------------------------------------------|
B|-14--13----------------------------------------------------------------------------------------------------------|
G|--------16--14--13---9-10-9-10-9-10-9-10-9-10--------------------------------------------------------------------|
D|-----------------------------------------------------------------------------------------------------------------|
A|-----------------------------------------------------------------------------------------------------------------|
E|-----------------------------------------------------------------------------------------------------------------|


CORO:-
      A 
Por que yo
             C#m 
no he podido conseguir
                     D 
ni un minuto donde no estes tu
Bm               E 
pasando por mi mente


     A 
Dime tu
            C#m 
como debo olvidar
                  D 
para ya no sentir el dolor
Bm                 E 
que me mata lentamente
D 
siempre nos amamos igual
       Bm             E 
pero tu me pudiste olvidar
E7                    A         Bb      A 
y yo sigo queriendote fuertemente.


Acordes:-

A       C#m        D       Bm        E       E7       F#m         Bb 

6-0      6-4      6-0      6-2      6-0      6-0      6-2        6-1
5-0      5-4      5-0      5-2      5-2      5-2      5-4        5-1
4-2      4-6      4-0      4-4      4-2      4-0      4-4        4-3
3-2      3-6      3-2      3-4      3-1      3-1      3-2        3-3
2-2      2-5      2-3      2-3      2-0      2-0      2-2       2-3
1-0      1-4      1-2      1-2      1-0      1-0      1-2       1-1
Composição de Oscar Ivan Treviño
2 exibições
    • ½ Tom
    • A
    • Bb
    • B
    • C
    • Db
    • D
    • Eb
    • E
    • F
    • F#
    • G
    • Ab
  • Adicionar à lista

    0 comentários

    Ver todos os comentários

    Conseguiu tocar?

    0 Tocaram 0 Ainda não

    Grave um vídeo tocando Fuertemente e nos envie!

    00:00 / 00:00
    Outros vídeos desta música
    Repetir Qualidade Automático
    Outros vídeos desta música
    00:00 / 00:00
    Automático

    Cifra Club Pro

    Aproveite o Cifra Club com benefícios exclusivos e sem anúncios
    Cifra Club Pro
    Aproveite o Cifra Club com benefícios exclusivos e sem anúncios
    OK