Cifra Club

The Messenger

INXS

Cifra: Principal (violão e guitarra)
Selo Cifra Club: esta cifra foi revisada para atender aos critérios oficiais da nossa Equipe de Qualidade.
tom: E
E 022100
A x0222x 
D x00232

Pre-Chorus Chords
D x00770
A x07650

Chorus Chords 
E 079900
B 799x00

[Intro]
E|-------------------|-------------------|
B|-----------------3-|-------------------|
G|-4--4----------2---|-4--4----------2---|
D|-4--4------2-4-----|-4--4------2-4---2-| x2
A|-2--2--2-5---------|-2--2--2-5---------|
E|-------------------|-------------------|

[Post-Intro]
E|-------------------|------------------|
B|-------------------|------------------|
G|-4--4--4--4--4--4--|-4--4--4--4-------|
D|-4--4--4--4--4--4--|-4--4--4--4-------|
A|-2--2--2--2--2--2--|-2--2--2--2-------|
E|-------------------|------------------|

(can strum post-intro along with the drums, alternate fingering 799x00)

[Verse]
E                  
Look around
A                  
Give your eyes a new adventure
E                  
What you see
     A            
Is a mix of past and future
                  
D                  
Your moment
A                   
Is comin' ah


[Intro]
E|-------------------|-------------------|
B|-----------------3-|-------------------|
G|-4--4----------2---|-4--4----------2---|
D|-4--4------2-4-----|-4--4------2-4---2-|
A|-2--2--2-5---------|-2--2--2-5---------|
E|-------------------|-------------------|
             Hold on,            hold on

[Pre-Chorus]                  
D                  
How you gonna be when tell they the story
A                  
Everything we took
A                  
Was it from each other
                  
[Intro]
E|-------------------|-------------------|
B|-----------------3-|-------------------|
G|-4--4----------2---|-4--4----------2---|
D|-4--4------2-4-----|-4--4------2-4---2-|
A|-2--2--2-5---------|-2--2--2-5---------|
E|-------------------|-------------------|
             Hold on,            come on

[Chorus]                  
E                  
It's too late to get around it
E                  
Say goodbye to how we found it
B                  
This is what we least expected
B                  
Don't you put the blame on the messenger
                  
E                  
It's too late to get around it
E                  
Say goodbye to how we found it
B                  
This is what we least expected
B                  
Don't you put the blame on the messenger
                  
[Intro]
E|-------------------|-------------------|
B|-----------------3-|-------------------|
G|-4--4----------2---|-4--4----------2---|
D|-4--4------2-4-----|-4--4------2-4---2-|
A|-2--2--2-5---------|-2--2--2-5---------|
E|-------------------|-------------------|
             Hold on,            hold on

[Verse]                  
E                  
I've seen the flames
     A              
That lick at survival
E                  
Check your dreams
  A                
Into the justice hotel
                  
D          A       
Your moment, is coming

[Intro]
E|-------------------|-------------------|
B|-----------------3-|-------------------|
G|-4--4----------2---|-4--4----------2---|
D|-4--4------2-4-----|-4--4------2-4---2-|
A|-2--2--2-5---------|-2--2--2-5---------|
E|-------------------|-------------------|
             Hold on,            hold on

[Pre-Chorus]                  
D                  
How you gonna be when they tell the story
A                  
Everything we took
A                  
Was it from each other
                  

[Intro]
E|-------------------|-------------------|
B|-----------------3-|-------------------|
G|-4--4----------2---|-4--4----------2---|
D|-4--4------2-4-----|-4--4------2-4---2-|
A|-2--2--2-5---------|-2--2--2-5---------|
E|-------------------|-------------------|
             Hold on,            hold on

[Chorus]                  
E                  
It's too late to get around it
E                  
Say goodbye to how we found it
B                  
This is what we least expected
B                  
Don't you put the blame on the messenger
                  
E                  
It's too late to get around it
E                  
Say goodbye to how we found it
B                  
This is what we least expected
B                  
Don't you put the blame on the messenger
                  

[Intro]
E|-------------------|-------------------|
B|-----------------3-|-------------------|
G|-4--4----------2---|-4--4----------2---|
D|-4--4------2-4-----|-4--4------2-4---2-|
A|-2--2--2-5---------|-2--2--2-5---------|
E|-------------------|-------------------|
             Hold on,            hold on

[Pre-Chorus]                  
D                  
How you gonna be when they tell the story
A                  
Everything we took
A                  
Was it from each other


[Intro]
E|-------------------|-------------------|
B|-----------------3-|-------------------|
G|-4--4----------2---|-4--4----------2---|
D|-4--4------2-4-----|-4--4------2-4---2-|
A|-2--2--2-5---------|-2--2--2-5---------|
E|-------------------|-------------------|
             Hold on,            ow

[Pre-Chorus]                  
D                  
How you gonna be when they tell the story
A                  
Everything we took
A                  
Was it from each other


[Intro]
E|-------------------|-------------------|
B|-----------------3-|-------------------|
G|-4--4----------2---|-4--4----------2---|
D|-4--4------2-4-----|-4--4------2-4---2-|
A|-2--2--2-5---------|-2--2--2-5---------|
E|-------------------|-------------------|
             Hold on,            hold on

[Chorus]                  
E                  
It's too late to get around it
E                  
Say goodbye to how we found it
B                  
This is what we least expected
B                 
Don't you put the blame on the messenger

E                  
It's too late to get around it
E                  
Say goodbye to how we found it
B                  
This is what we least expected
B                 
Don't you put the blame on the messenger                 

[Intro]
E|-------------------|-------------------|
B|-----------------3-|-------------------|
G|-4--4----------2---|-4--4----------2---|
D|-4--4------2-4-----|-4--4------2-4---2-|
A|-2--2--2-5---------|-2--2--2-5---------|
E|-------------------|-------------------|
             Hold on,            uh-huh

[Intro]
E|-------------------|-------------------|
B|-----------------3-|-------------------|
G|-4--4----------2---|-4--4----------2---|
D|-4--4------2-4-----|-4--4------2-4---2-|
A|-2--2--2-5---------|-2--2--2-5---------|
E|-------------------|-------------------| 
             Hold on,            hold on

[Chorus]                  
E                  
It's too late to get around it
E                  
Say goodbye to how we found it
B                  
This is what we least expected
B                 
Don't you put the blame on the messenger

E                  
It's too late to get around it
E                  
Say goodbye to how we found it
B                  
This is what we least expected
B                 
Don't you put the blame on the messenger 


[Intro]
E|-------------------|-------------------|
B|-----------------3-|-------------------|
G|-4--4----------2---|-4--4----------2---|
D|-4--4------2-4-----|-4--4------2-4---2-|
A|-2--2--2-5---------|-2--2--2-5---------|
E|-------------------|-------------------|
         Huh-ha yeah,             Come on
00:00 / 00:00
Outros vídeos desta música
Repetir
Outros vídeos desta música
8 exibições
    • ½ Tom
    • A
    • Bb
    • B
    • C
    • Db
    • D
    • Eb
    • E
    • F
    • F#
    • G
    • Ab
  • Adicionar à lista

Afinação da cifra

Afinador online

    0 comentários

    Ver todos os comentários

    Entre para o Cifra Club PRO

    Tenha acesso a benefícios exclusivos no App e no Site

    • Chega de anúncios

    • Mais recursos no app do Afinador

    • Atendimento Prioritário

    • Aumente seu limite de lista

    • Ajude a produzir mais conteúdo

    00:00 / 00:00

    Cifra Club Pro

    Aproveite o Cifra Club com benefícios exclusivos e sem anúncios
    Cifra Club Pro
    Aproveite o Cifra Club com benefícios exclusivos e sem anúncios
    OK