Cifra Club

Aprenda

Aces High

Iron Maiden

Cifra: Principal (violão e guitarra)
Quer fazer aulas de música com a gente? Responda essas perguntas
e nos ajude nesse projeto! →
tom: E
RIFF INTRO:
E|----------------|2X |-----|
B|----------------|   |-----|
G|------1---2-1---|   |-----| e volta ao riff INTRO.
D|--2-4---4-------|   |-----|
A|----------------|   |-4-5-|
E|----------------|   |-----|
fINAL DO RIFF INTRO:
E|----------------|
B|----------------|
G|----------------|
D|--4----6--4-----|
A|----7--------7--|
E|----------------|

Riff Guitar 1 (Dave Murray) :Riff 2:
E|------------------------|
B|---------------5--5-----|
G|--5--4-5-4-5-4-------5--|
D|------------------------|
A|------------------------|
E|------------------------|

E|------------------------------|
B|---------------3-3--5-3-------|
G|--5--4-5-4-5-4----------5-4-5-|
D|------------------------------|
A|------------------------------|
E|------------------------------|

Riff Guitar 2. (Adrian smith) Riff 2.

E|------------------------|
B|---------------5--5-----|
G|--7--5-7-5-7-5-------7--|
D|------------------------|
A|------------------------|
E|------------------------|

E|------------------------------|
B|---------------4--4-5-4-------|
G|--7--5-7-5-7-5----------7-5-7-|
D|------------------------------|
A|------------------------------|
E|------------------------------|


Verse-riff 1:
There goes the siren that warnes of the air raid
E|-------------------------------------------------|
B|-------------------------------------------------|
G|--4---6---7---9---7---6---4---7---6---2---6---2--|
D|--2---4---5---7---5---4---2---5---4---0---4---0--|
A|-------------------------------------------------|
E|-------------------------------------------------|

There comes the sound of the guns sending flak
E|-------------------------------------------|
B|-------------------------------------------|
G|--4---6---7---9---7---6---4---7---6---2----|
D|--2---4---5---7---5---4---2---5---4---0----|
A|-------------------------------------------|
E|-------------------------------------------|

Verse-riff 2:
   Jump in the cockpit and start up the engines
E|-------------------------------------------------|
B|-------------------------------------------------|
G|-------------------------------------------------|
D|--2---4---5---7---5---4---2---5---4-------4------|
A|--0---2---3---5---3---2---0---3---2---5---2---5--|
E|--------------------------------------3-------3--|

Remove all the wheelblocks there's no time to waste
E|-------------------------------------------------|
B|-------------------------------------------------|
G|-------------------------------------------------|
D|--2---4---5---7---5---4---2---5---4--------------|
A|--0---2---3---5---3---2---0---3---2---5----------|
E|--------------------------------------3----------|

Pre-chorus-riff:
   Running             scrambling
E|-------------------|-------------------|
B|-------------------|-------------------|
G|-------------------|-------------------|
D|-------------------|--5----------------|
A|--5-7-7-7-7-7-7-7--|----7-7-7-7-7-7-7--|
E|-------------------|-------------------|

   flying
E|-------------------|-------------------|
B|-------------------|-------------------|
G|-------------------|--5-4--------------|
D|--7----------------|------7-5-7-5-4----|
A|----7-7-7-7-7-7-7--|----------------5--|
E|-------------------|-------------------|

   Rolling             turning
E|-------------------|-------------------|
B|-------------------|-------------------|
G|-------------------|-------------------|
D|-------------------|-------------------|
A|--5-7-7-7-7-7-7-7--|--5-7-7-7-7-7-7-7--|
E|-------------------|-------------------|

   diving              going in again
E|-------------------|-------------------|
B|-------------------|-------------------|
G|-------------------|--5-4--------------|
D|-------------------|------7-5-7--------|
A|--5-7-7-7-7-7-7-7--|-------------------|
E|-------------------|-------------------|

End of pre-chorus-riff.

Chorus:
   Run          live to...
E|------------|--------------|
B|------------|--------------|
G|------------|--------------|
D|--9---------|--5-----7-----|
A|--7---------|--3-----5-----|
E|------------|--------------|

...fly          fly to...
E|------------|--------------|
B|------------|--------------|
G|------------|--------------|
D|--9---------|--5-----7-----|
A|--7---------|--3-----5-----|
E|------------|--------------|

...live         do or...
E|------------|--------------|
B|------------|--------------|
G|------------|--------------|
D|--9---------|--5-----7-----|
A|--7---------|--3-----5-----|
E|------------|--------------|

...die          want you.
E|------------|--------------|
B|------------|--------------|
G|------------|--------------|
D|---9--------|--5-----7-----|
A|---7--------|--3-----5-----|
E|------------|--------------|

   Run          live to...
E|------------|--------------|
B|------------|--------------|
G|------------|--------------|
D|--12--------|--8-----10----|
A|--10--------|--6-----8-----|
E|------------|--------------|

...fly          fly to...
E|------------|--------------|
B|------------|--------------|
G|------------|--------------|
D|--12--------|--8-----10----|
A|--10--------|--6-----8-----|
E|------------|--------------|

...live         Aces...
E|------------|--------------|
B|------------|--------------|
G|------------|--------------|
D|---12-------|--8-----10----|
A|---10-------|--6-----8-----|
E|------------|--------------|

...high
E|------------|--------------|
B|------------|--------------|
G|------------|--------------|
D|---12-------|--8-----10----|
A|---10-------|--6-----8-----|
E|------------|--------------|

End of chorus.

Riff 3:
E|-----------------------------|
B|-----------------------------|
G|-----------------------------|
D|-----------------------7--7--|
A|--0--3-3--0-0--3-2-0-0-5--5--|
E|-----------------------------|

E|-----------------------------|
B|-----------------------------|
G|-----------------------------|
D|-----------------------2--2--|
A|--0--3-3--0-0--3-2-0---0--0--|
E|---------------------3--------|

E|-----------------------------|
B|-----------------------------|
G|-----------------------------|
D|-----------------------7--7--|
A|--0--3-3--0-0--3-2-0-0-5--5--|
E|-----------------------------|

E|----------------------------|
B|----------------------------|
G|----------------------------|
D|-----------------------2----|
A|--0--3-3--0-0--3-2-0---0----|
E|---------------------3------|

End of riff 3.

Solo-riff 1:
E|---------------|---------------|
B|---------------|---------------|
G|---------------|---------------|
D|---------------|--------5---7--|
A|--7-----3---5--|--7-----3---5--|
E|--5-----1---3--|--5------------|

Solo-riff 2:
E|---------------|---------------|
B|---------------|---------------|
G|---------------|---------------|
D|--4------------|--4-----7---9--|
A|--2-----5---7--|--2-----5---7--|
E|--------3---5--|---------------|

Outro-riff:
E|---------------------|---------------------------------|
B|---------------------|-----------------5---------------|
G|---------------------|--4--7--7--7--7-----7--5--4p5p4--|
D|--7---5--7--5--7--5--|---------------------------------|
A|---------------------|---------------------------------|
E|---------------------|---------------------------------|

E|---------------------------------------------|
B|--8---5p6p5-----5--6--5----------------------|
G|-------------7-----------4--5-------------2--|
D|------------------------------------------2--|
A|------------------------------------------0--|
E|---------------------------------------------|

Solo
transcrito por Demetrio Ferreira Czmyr

E|---------------------------|------5--------------------------------|
B|---------------------------|--5h8-----8p5---5----------------------|
G|--8b--(9)--várias vezes  --|--------------7---7p5h7p5--------------|
D|---------------------------|----------------------------7p5h7p5----|
A|---------------------------|------------------------------------7--|
E|---------------------------|---------------------------------------|

E|--0-8p0h7p0--8p0h7p0----8p0h7p0--8p0h7p0----8p0h7p0--8p0h7p0--5~~--|
B|-------------------------------------------------------------------|
G|-------------------------------------------------------------------|
D|-------------------------------------------------------------------|
A|-------------------------------------------------------------------|
E|-------------------------------------------------------------------|

E|----------------------5h8--|---------------------------------------|
B|------------------5h8------|--15p12----15p14----15p12----15-15p12--|
G|----------5h7p5h7----------|---------------------------------------|
D|--5h7p5h7------------------|---------------------------------------|
A|---------------------------|---------------------------------------|
E|---------------------------|---------------------------------------|

E|---------------------------------------|---------------------------|
B|--15p12----15p14----15p12----15-15p12--|---12-10-8-10----8-7-8-7---|
G|---------------------------------------|---------------------------|
D|---------------------------------------|---------------------------|
A|---------------------------------------|---------------------------|
E|---------------------------------------|---------------------------|

E|---------------------|---------------------------------------------|
B|---5-7-8-7-----------|---------7h10-10p7---------------------------|
G|-------------7p4~~---|--------------------10p9p7-------------------|
D|---------------------|--9~~-----------------------9p7--------------|
A|---------------------|---------------------------------9p8p7-------|
E|---------------------|----------------------------------------10~--|

E|--------------------------------|----------------------7~~~~-------|
B|--------------------------------|--------7--10--7------------------|
G|--10--9--7--10------------------|--7--9------------9---------------|
D|------------------9--7----------|----------------------------------|
A|------------------------9--7~~--|----------------------------------|
E|--------------------------------|----------------------------------|

Song-structure:
Opening-riff (16 times)
Riff 2 (4 times)
Verse-riff 1 (2 times)
Verse-riff 2 (2 times)
Pre-chorus-riff (2 times)
Chorus
Riff 3 (2 times)
Solo-riff 1 (2 times)
Solo-riff 2 (2 times)
Riff 3 (2 times)
Verse-riff 1 (2 times)
Verse-riff 2 (2 times)
Pre-chorus-riff (2 times)
Chorus
Riff 2 (3 1/2 times)
Outro-riff
END

Lyrics:
There goes the siren that warns of the air raid
There comes the sound of the guns sending flak
Out for the scramble we've got to get airborne
Got to get up for the coming attack

Jump in the cockpit and start up the engines
Remove all the wheelblocks
There's no time to waste
Gathering speed as we head down the runway
Gotta get airborne before it's too late

Running, scrambling, flying
Rolling, turning, divind, going in again
Run, live to fly, fly to live, do or die
Run, live to fly, fly to live, Aces high

Move in to fire at the mainstream of bombers
Let off a sharp burst and then turn away
Roll over, spin round and come in behind them
Move to their blindsides and firing again

Bandits at 8 O'clock move in behind us
Ten ME-109's out of the sun
Ascending and turning out spitfires to face them
Heading straight for them I press down my guns

Rolling, turning, diving
Rolling, turning, diving, going in again
Run, live to fly, fly to live, do or die
Run, live to fly, fly to live, Aces high
Composição de Steve Harris
Colaboração e revisão:
  • Jefferson bernardes
  • Luis Felipe
209.271 exibições
    • ½ Tom
    • A
    • Bb
    • B
    • C
    • Db
    • D
    • Eb
    • E
    • F
    • F#
    • G
    • Ab
  • Adicionar à lista

    0 comentários

    Ver todos os comentários
    00:00 / 00:00
    Outros vídeos desta música
    Repetir Qualidade Automático
    Outros vídeos desta música
    00:00 / 00:00
    Automático

    Cifra Club Pro

    Aproveite o Cifra Club com benefícios exclusivos e sem anúncios
    Cifra Club Pro
    Aproveite o Cifra Club com benefícios exclusivos e sem anúncios
    OK