Cifra Club

Aprenda

Be Quick Or Be Dead

Iron Maiden

Cifra: Principal (violão e guitarra)
Já pensou em usar uma coleção de roupas do Cifra Club? Responda as perguntas abaixo e nos ajude nessa missão! →
tom: D
Intro 4x:
E|-------------------------------------|-----------------------------------|
B|-------------------------------------|-----------------------------------|
G|-------------------------------------|-----------------------------------|
D|-1\5-0-0-0-1-0-0-0-1\5-1-3-1-0-0-0-0-|-1\5-0-0-0-1-0-0-0-1\5-3-1-0-------|
A|-------------------------------------|-----------------------------3-----|
E|-------------------------------------|-----------------------------------|

Parte 1:
E|--------------------------|--------------------------|
B|--------------------------|--------------------------|
G|--------------------------|--------------------------|
D|--------------------7--8--|--------------3--5--8--7--| (2x)
A|-5X5X5-5X5X5-5X5X5--5--6--|-5X5X5-5X5X5--1--3--6--5--|
E|-3X3X3-3X3X3-3X3X3--------|-3X3X3-3X3X3--------------|

E|-------------------------------|-------------------------------|
B|-------------------------------|-------------------------------|
G|-------------------------------|-------------------------------| (2x)
D|--5-5-5-5--5-5--3--3-3---------|--5-5-5-5--5-5--3--3-3--8--7-8-|
A|--3-3-3-3--3-3--1--1-1--3--3-3-|--3-3-3-3--3-3--1--1-1--6--5-6-|
E|------------------------1--1-1-|-------------------------------|

E|-----------------------------------------|
B|-----------------------------------------|
G|-----------------------------------------|
D|-5\7-5-0--3\5-3----1\3-1----0\1-1-0------|  (3x)
A|----------------5--------3----------1----|
E|--------------------------------------3--|

E|---------------------------------------|----------------------------------|
B|---------------------------------------|----------------------------------|
G|---------------------------------------|----------------------------------|
D|-5\7-5-0--3\5-3----1\3-1----0\1-1-0----|----------------------------------|
A|----------------5--------3----------1--|-3----------------5---------------|
E|---------------------------------------|-1----------------3---------------|

E|-------------------------------------|--------------------------------|
B|-------------------------------------|--------------------------------|
G|-------------------------------------|--------------------------------|
D|--3----5----3--------3----5----3---7-|------------------------8--10---|
A|--1-3--3-5--1-3-5----1-3--3-5--1-3-5-|------------------------6---8---|
E|----1----3----1-3------1----3----1---|--------------------------------|

E|-------------------------------------|-----------------------------------|
B|-------------------------------------|-----------------------------------|
G|-------------------------------------|-----------------------------------|
D|-1\5-0-0-0-1-0-0-0-1\5-1-3-1-0-0-0-0-|-1\5-0-0-0-1-0-0-0-1\5-3-1-0-------|  (4x)
A|-------------------------------------|-----------------------------3-----|
E|-------------------------------------|-----------------------------------|

Parte 2:
E|--------------------------|--------------------------|
B|--------------------------|--------------------------|
G|--------------------------|--------------------------|
D|--------------------7--8--|--------------3--5--8--7--| (2x)
A|-5X5X5-5X5X5-5X5X5--5--6--|-5X5X5-5X5X5--1--3--6--5--|
E|-3X3X3-3X3X3-3X3X3--------|-3X3X3-3X3X3--------------|

E|-------------------------------|-------------------------------|
B|-------------------------------|-------------------------------|
G|-------------------------------|-------------------------------| (2x)
D|--5-5-5-5--5-5--3--3-3---------|--5-5-5-5--5-5--3--3-3--8--7-8-|
A|--3-3-3-3--3-3--1--1-1--3--3-3-|--3-3-3-3--3-3--1--1-1--6--5-6-|
E|------------------------1--1-1-|-------------------------------|

E|-----------------------------------------|
B|-----------------------------------------|
G|-----------------------------------------| (3x)
D|-5\7-5-0--3\5-3----1\3-1----0\1-1-0------|
A|----------------5--------3----------1----|
E|--------------------------------------3--|

E|---------------------------------------|----------------------------------|
B|---------------------------------------|----------------------------------|
G|---------------------------------------|----------------------------------|
D|-5\7-5-0--3\5-3----1\3-1----0\1-1-0----|----------------------------------|
A|----------------5--------3----------1--|-3----------------5---------------|
E|---------------------------------------|-1----------------3---------------|

E|-------------------------------------|--------------------------------|
B|-------------------------------------|--------------------------------|
G|-------------------------------------|--------------------------------|
D|--3----5----3--------3----5----3---7-|------------------------8--10---|
A|--1-3--3-5--1-3-5----1-3--3-5--1-3-5-|------------------------6---8---|
E|----1----3----1-3------1----3----1---|--------------------------------|

Base Solo:
E|----------------------------------------------------------|
B|----------------------------------------------------------|
G|----------------------------------------------------------|
D|--5--3-5--3-5-3--5--3-5--8-8--5--3-5--3-5-3--5--3-5--3----| (2x)
A|--3--1-3--1-3-1--3--1-3--6-6--3--1-3--1-3-1--3--1-3--1-6--|
E|-------------------------------------------------------4--|

E|----------------------------------------------------------|
B|----------------------------------------------------------|
G|----------------------------------------------------------| (2x)
D|--7--5-7--5-7-5--7--5-7-1010--7--5-7--5-7-5--7--5-7--5-3--|
A|--5--3-5--3-5-3--5--3-5--8-8--5--3-5--3-5-3--5--3-5--3-1--|
E|----------------------------------------------------------|

E|-------------------------------|-------------------------------|
B|-------------------------------|-------------------------------|
G|-------------------------------|-------------------------------|
D|--5-5-5-5--5-5--3--3-3---------|--5-5-5-5--5-5--3--3-3--8--7-8-| (2x)
A|--3-3-3-3--3-3--1--1-1--3--3-3-|--3-3-3-3--3-3--1--1-1--6--5-6-|
E|------------------------1--1-1-|-------------------------------|

Outro:
E|-----------------------------------------||
B|-----------------------------------------||
G|-----------------------------------------||
D|-5\7-5-0--3\5-3----1\3-1----0\1-1-0------||
A|----------------5--------3----------1----||
E|--------------------------------------3--||
Composição de Bruce Dickinson / Janick Gers
Colaboração e revisão:
  • leonardo agabatuler
7.364 exibições
    • ½ Tom
    • A
    • Bb
    • B
    • C
    • Db
    • D
    • Eb
    • E
    • F
    • F#
    • G
    • Ab
  • Adicionar à lista

    0 comentários

    Ver todos os comentários

    Conseguiu tocar?

    1 Tocaram 0 Ainda não

    Grave um vídeo tocando Be Quick Or Be Dead e nos envie!

    00:00 / 00:00
    Outros vídeos desta música
    Repetir Qualidade Automático
    Outros vídeos desta música
    00:00 / 00:00
    Automático

    Cifra Club Pro

    Aproveite o Cifra Club com benefícios exclusivos e sem anúncios
    Cifra Club Pro
    Aproveite o Cifra Club com benefícios exclusivos e sem anúncios
    OK