Enviar cifraEntrar

Wasted Years

Iron Maiden

Cifra: Principal
exibições 160.778
Tom: G
Introdução:

(Parte 1 - 3x)


E|-12-0-0-0-0-0-7-0-0-0-0-0-8-0-0-0-0-0-5-0-0-0-0-0---|
B|----------------------------------------------------|
G|----------------------------------------------------|
D|----------------------------------------------------|
A|----------------------------------------------------|
E|----------------------------------------------------|


E|-7-0-0-0-3-0-0-0-5-0-0-0-0-0-2-0-0-0-0-0-3-0-0-0-0-0|
B|----------------------------------------------------|
G|----------------------------------------------------|
D|----------------------------------------------------|
A|----------------------------------------------------|
E|----------------------------------------------------|


E|-5-0-0-0-0-0-2-0-0-0-3-0-0-0------------------------|
B|----------------------------------------------------|
G|----------------------------------------------------|
D|----------------------------------------------------|
A|----------------------------------------------------|
E|----------------------------------------------------|


(Parte 2)


E|-12-0-0-0-0-0-7-0-0-0-0-0-8-0-0-0-0-0-5-0-0-0-0-0---|
B|----------------------------------------------------|
G|----------------------------------------------------|
D|----------------------------------------------------|
A|----------------------------------------------------|
E|----------------------------------------------------|


E|-7-0-0-0-3-0-0-0-5-0-0-0-0-0-2-0-0-0-0-0-3-0-0-0-0-0|
B|----------------------------------------------------|
G|----------------------------------------------------|
D|----------------------------------------------------|
A|----------------------------------------------------|
E|----------------------------------------------------|


E|-5-0-0-0-0-0-2-0-0-0-3------------------------------|
B|----------------------------------------------------|
G|-----------------------7-7-7~-----------------------|
D|-----------------------7-7-7~-----------------------|
A|-----------------------5-5-5~-----------------------|
E|----------------------------------------------------|


Primeira Parte:

          E5
From the coast of gold
   G5       D5
Across the seven seas
      E5
I'm travelling on
G5     D/F#     G5
   Far and wide
        C5
But now    it seems
     D5       E5
I'm just a stranger to myself
G5            D5
And all the things I sometimes do
G5        C5
It isn't me but someone else
D5     E5
   I close my eyes
G5       D5
   And think of home
         E5
Another city goes by
G5      D/F#  G5
In the night
                   C5
Ain't it funny how    it is
     D5    E5
You never miss it til it's gone away
G5      D5
And my heart is lying there
G5           C5
And will be til my dying day


Refrão:

 G5  C5  A5     D5  C5  A5
So       understand
       E5                     D5
Don't waste your time always searching for those
 C5
Wasted years
 G5     C5
Face up
 A5         D5  C5  A5
Make your stand
      E5            D5
And realize you're living in the
 C5
Golden years


Segunda Parte:

D5  E5
   Too much time on my hands
G5        D5
I got you on my mind
      E5
Can't ease this pain
G5    D/F#   G5
   So easily
          C5
When you can't find the words to say
D5            E5
It's hard to make it through another day
G5         D5
   And it makes me wanna cry
G5            C5
And throw my hands up to the sky


Refrão:

 G5  C5  A5     D5  C5  A5
So       understand
       E5                     D5
Don't waste your time always searching for those
 C5
Wasted years
 G5     C5
Face up
 A5         D5  C5  A5
Make your stand
      E5            D5
And realize you're living in the
 C5
Golden years


Solo:

(Parte 1)


E|----------------------------------------------------|
B|-10p0-8p0-8p0-10p0-8p0-8p0-10p0-8p0-8p0-10p0-8p0-8p0|
G|----------------------------------------------------|
D|----------------------------------------------------|
A|----------------------------------------------------|
E|----------------------------------------------------|


E|----------------------------------------------------|
B|-10p0-8p0-8p0-8\7—5\3--5/7--5~----------------------|
G|----------------------------------------------------|
D|----------------------------------------------------|
A|----------------------------------------------------|
E|----------------------------------------------------|


(Parte 2)


E|--------12--------------12--------------12----------|
B|-15b17-----15p12-----------15p12-15b17-----15p12----|
G|-----------------14b16------------------------------|
D|----------------------------------------------------|
A|----------------------------------------------------|
E|----------------------------------------------------|


E|--------12-------------------14b15------------------|
B|-----------15p12-15b17r15p12------------------------|
G|-14b16----------------------------------------------|
D|----------------------------------------------------|
A|----------------------------------------------------|
E|----------------------------------------------------|


E|-14b15-14b15-14b15-14b15r14p12----------------------|
B|-------------------------------13~------------------|
G|----------------------------------------------------|
D|----------------------------------------------------|
A|----------------------------------------------------|
E|----------------------------------------------------|


(Parte 3)


E|-15-14h15p12----14-15-14h15p12----14-15-14h15p12----|
B|-------------12----------------12-------------------|
G|----------------------------------------------------|
D|----------------------------------------------------|
A|----------------------------------------------------|
E|----------------------------------------------------|


E|----14-15-14h15p12----14-15-14h15p12----14-15-------|
B|-12----------------12----------------12-------------|
G|----------------------------------------------------|
D|----------------------------------------------------|
A|----------------------------------------------------|
E|----------------------------------------------------|


E|-14h15p12----14-15-14h15p12----14-15-14h15p12-------|
B|----------12----------------12----------------------|
G|----------------------------------------------------|
D|----------------------------------------------------|
A|----------------------------------------------------|
E|----------------------------------------------------|


E|----14-15-14h15p12----14h15p12~---------------------|
B|-12----------------12-------------------------------|
G|----------------------------------------------------|
D|----------------------------------------------------|
A|----------------------------------------------------|
E|----------------------------------------------------|


(Parte 4)


E|-12-14h15-12h14-------------------------------------|
B|----------------15h17-13h15-12h13-------------------|
G|----------------------------------14h16-12h14-11h12-|
D|----------------------------------------------------|
A|----------------------------------------------------|
E|----------------------------------------------------|


E|----------------------------------------------------|
B|----------------------------------------------------|
G|----------------------------------------------------|
D|-14h16-12h14-10h12-9~-------------------------------|
A|----------------------------------------------------|
E|----------------------------------------------------|


(Parte 5)


E|---------14-15----14-15-17---15-17-19---17-19-20----|
B|-15b17~--------17-----------------------------------|
G|----------------------------------------------------|
D|----------------------------------------------------|
A|----------------------------------------------------|
E|----------------------------------------------------|


E|-19-20-22b24r22p20-22~--20-19-20-20b22-b22r20-19----|
B|-------------------------------------------------20-|
G|----------------------------------------------------|
D|----------------------------------------------------|
A|----------------------------------------------------|
E|----------------------------------------------------|


E|----------------------------------------------------|
B|----------------------------------------------------|
G|-19-19~~--------------------------------------------|
D|----------------------------------------------------|
A|----------------------------------------------------|
E|----------------------------------------------------|



Refrão:

 G5  C5  A5     D5  C5  A5
So       understand
       E5                     D5
Don't waste your time always searching for those
 C5
Wasted years
 G5     C5
Face up
 A5         D5  C5  A5
Make your stand
      E5            D5
And realize you're living in the
 C5
Golden years


Refrão:

 G5  C5  A5     D5  C5  A5
So       understand
       E5                     D5
Don't waste your time always searching for those
 C5
Wasted years
 G5     C5
Face up
 A5         D5  C5  A5
Make your stand
      E5            D5
And realize you're living in the
 C5
Golden years


Final:

(Parte 1 - 2x)


E|-12-0-0-0-0-0-7-0-0-0-0-0-8-0-0-0-0-0-5-0-0-0-0-0---|
B|----------------------------------------------------|
G|----------------------------------------------------|
D|----------------------------------------------------|
A|----------------------------------------------------|
E|----------------------------------------------------|


E|-7-0-0-0-3-0-0-0-5-0-0-0-0-0-2-0-0-0-0-0-3-0-0-0-0-0|
B|----------------------------------------------------|
G|----------------------------------------------------|
D|----------------------------------------------------|
A|----------------------------------------------------|
E|----------------------------------------------------|


E|-5-0-0-0-0-0-2-0-0-0-3-0-0-0------------------------|
B|----------------------------------------------------|
G|----------------------------------------------------|
D|----------------------------------------------------|
A|----------------------------------------------------|
E|----------------------------------------------------|


(Parte 2)


E|-12-0-0-0-0-0-7-0-0-0-0-0-8-0-0-0-0-0-5-0-0-0-0-0---|
B|----------------------------------------------------|
G|----------------------------------------------------|
D|----------------------------------------------------|
A|----------------------------------------------------|
E|----------------------------------------------------|


E|-7-0-0-0-3-0-0-0------------------------------------|
B|-----------------/5--5--5--3--3--3--1--1--1--0--0--0|
G|----------------------------------------------------|
D|----------------------------------------------------|
A|----------------------------------------------------|
E|----------------------------------------------------|


E|----------------------------------------------------|
B|----------------------------------------------------|
G|-2--0-----------------------------------------------|
D|-------2----2---------------------------------------|
A|------------2---------------------------------------|
E|------------0---------------------------------------|
  • 1
  • 2
  • 3
  • 4
  • 5
  • 6
  • 7
  • 8
  • 9
  • 10
  • 11
  • 12
    Acordes para:
      Composição: Adrian SmithColaboração e revisão:
      • v.inny

      0 comentários

        mostrar mais comentários

        Conseguiu tocar?

        39tocaram0ainda não

        Grave um vídeo tocando Wasted Years e mande pra gente!

        00:00 / 00:00
        outros vídeos desta música
        repetirqualidadeautomática
        • automática
        Outro vídeos desta música
          Capítulos
          • Início
          • Tocando a Música
          • Acordes da Introdução
          • Tocando Introdução
          • Ensinando Introdução
          • Acordes da Primeira Parte
          • Tocando Primeira Parte
          • Ritmo Primeira Parte
          • Acordes Refrão
          • Tocando Refrão
          • Ritmo Refrão
          • Tocando Segunda Parte
          • Ritmo Segunda Parte
          • Tocando Solo
          • Ensinando Solo
          • Ensinando Base Solo
          • Tocando o Final
          • Ensinando Final
          • Encerramento
          00:00 / 00:00
          automática
          • automática
          Acordes para:violão e guitarra
          dificuldadeexibiçõescontribuições
          1 versão de Tab de baixoexibiçõescontribuições
          3 versões de Guitar Proformatodownloadscontribuição
          fecharplay/pause subir/descer velocidade
            acordes
            fechar
            OK
            Feedback