Enviar cifraEntrar

When The Wild Wind Blows

Iron Maiden

Cifra: Principal
exibições 23.791
Tom: E

E|-----------------------|------------------|-----------------------|--------------------|
B|-----------------------|------------------|-----------------------|--------------------|
G|---9----7-----7----7---|---9-----7-----9--|---9----7-----7----7---|----9-----7---------|
D|-9----9----9-----9---9-|-9----9-----9-----|-9----9----9-----9---9-|--9----9-----9--10--|
A|-----------------------|------------------|-----------------------|--------------------|
E|-----------------------|------------------|-----------------------|--------------------|


|-----------------------|------------------|-----------------------|--------------------|
|-----------------------|------------------|-----------------------|--------------------|
|---9----7-----7----7---|---9-----7-----9--|---9----7-----7----7---|----9-----5------7B-|
|-9----9----9-----9---9-|-9----9-----9-----|-9----9----9-----9---9-|--9----9-----5------|
|-----------------------|------------------|-----------------------|--------------------|
|-----------------------|------------------|-----------------------|--------------------|


(2x)

|-----------------------------------------------------|--------------------------------------------7-10B
|--7-8-7---------------------------7-8--7-------------|--7-8--7------------------------8-7-8B|---10-----
|9-------9-9-7-7-----7------------9--------9-9-7-7----|9--------9-9-7-7-----7--------------------------
|----------------9-----9-9-5-7--------------------9-7B|-----------------9-----9-9-5-7------------------
|-----------------------------------------------------|------------------------------------------------
|-----------------------------------------------------|------------------------------------------------


|--------------------------------|---------------------------|(2x)
|-----7-8-7----------------------|-----7-8-7-----------------|
|---9-------9--7--7-9-9-7-7-9-9-7|---9-------9-7--7-9-9-7-9--|
|-9------------------------------|-9-------------------------|
|--------------------------------|---------------------------|
|--------------------------------|---------------------------|
                                    . . . . . . 2X. . . . . . .

|-7-7-7-7--------|-------------------|---------------------------|--------------7-10B|--|
|---------10-8-7-|-------------------|-----7-8-7-----------------|-8-7--8B|--10---------|
|----------------|-7--7-9-9-7-7-9-9-7|---9-------9-7--7-9-9-7-9--|----------------------|
|----------------|-------------------|-9-------------------------|----------------------|
|----------------|-------------------|---------------------------|----------------------|
|----------------|-------------------|---------------------------|----------------------|


|--------------------------------|---------------------------|
|-----7-8-7----------------------|-----7-8-7-----------------|
|---9-------9--7--7-9-9-7-7-9-9-7|---9-------9-7--7-9-9-7-9--|
|-9------------------------------|-9-------------------------|
|--------------------------------|---------------------------|
|--------------------------------|---------------------------|


|--------------------------------|---------------------------|
|-----7-8-7----------------------|-----7-8-7-----------------|
|---9-------9--7--7-9-9-7-7-9-9-7|---9-------9---------------|
|-9------------------------------|-9------------9--9--7B|-----|
|--------------------------------|---------------------------|
|--------------------------------|---------------------------|
|----------------------------------------------------|
|----------------------------------------------------|
|----------------------------------------12-12-12----|
|-2-----2-----2-----2-----2-----2-----2--12-12-12----|
|-2-2-2-2-2-2-2-2-2-2-2-2-2-2-2-2-2-2-2--10-10-10----|
|-0-0-0-0-0-0-0-0-0-0-0-0-0-0-0-0-0-0-0--------------|


|-------------------------------------------------------------------|
|-------------------------------------------------------------------|
|-5-----5-----5-----5-----5-----5-----5-----------------7-----7---7-|
|-5-5-5-5-5-5-5-5-5-5-5-5-5-5-5-5-5-5-5---5-------------7-7-7-7-7-7-|
|-3-3-3-3-3-3-3-3-3-3-3-3-3-3-3-3-3-3-3---5--5-5-5-5-5--5-5-5-5-5-5-|
|-----------------------------------------3--3-3-3-3-3--------------|

                                                        devagar

|--------------------------------------------|    |--------------------------------------------|
|--------------------------------------------|    |-------7-8-7--------------------------------|
|-------9------------------------------------|    |-9---9------9-7-9-7-4-7-7-------------------|
|-------------9--5---7---5--7---9---5--7-----|    |-----9-------------------------9----5---7---|
|--7---------------------------------------7-|(2x)|--------------------------------------------|
|--------------------------------------------|    |--------------------------------------------|(3x)


Solo 1:

|----------------------------------------------------|
|----------------------------------------------------|
|----------------------------------------12-12-12----|
|-2-----2-----2-----2-----2-----2-----2--12-12-12----|
|-2-2-2-2-2-2-2-2-2-2-2-2-2-2-2-2-2-2-2--10-10-10----|
|-0-0-0-0-0-0-0-0-0-0-0-0-0-0-0-0-0-0-0--------------|


|-------------------------------------------------------------------|
|-------------------------------------------------------------------|
|-5-----5-----5-----5-----5-----5-----5-----------------7-----7---7-|
|-5-5-5-5-5-5-5-5-5-5-5-5-5-5-5-5-5-5-5---5-------------7-7-7-7-7-7-|
|-3-3-3-3-3-3-3-3-3-3-3-3-3-3-3-3-3-3-3---5--5-5-5-5-5--5-5-5-5-5-5-|
|-----------------------------------------3--3-3-3-3-3--------------|


Solo 2:

|-7-7-7----7-8-7---------7-----------------------|4X|-----------------------------------------------4X|
|-------10-------10-8-10---10-8-7--------8-7---8-|  |-------------------------------------------------|
|----------------------------------9-9-9-----9---|  |-4-4-4----4-5-4---------4-7-5-4--------5-4------5|
|------------------------------------------------|  |--------7--------7-5-7----------7-7-7------7--5--|
|------------------------------------------------|  |-------------------------------------------------|
|------------------------------------------------|  |-------------------------------------------------|


|-------------------------------------------------||-------------------------------------------|
|-------------------------------------------------||-------------------------------------------|
|---9-9-9---12-12-12-----5-5-5---12-12-12--7--12--||---9-9-9---12-12-12-----5-5-5---------7----|
|---9-9-9---12-12-12-----5-5-5---12-12-12--7--12--||---9-9-9---12-12-12-----5-5-5---7-7-7-7--7-|
|---7-7-7---10-10-10-----3-3-3---10-10-10--5--10--||---7-7-7---10-10-10-----3-3-3---7-7-7-5--7-|
|-------------------------------------------------||--------------------------------5-5-5----5-|(2x)


|-7-7-7----7-8-7---------7-----------------------|(4x)
|-------10-------10-8-10---10-8-7--------8-7---8-|
|----------------------------------9-9-9-----9---|
|------------------------------------------------|
|------------------------------------------------|
|------------------------------------------------|


|----------------------------------------7--------------------| (devagar)
|-----7--8--10-8-7-8-7--------------8-10---10-8-10-8-7--------|
|-9--------------------9-7-4-5B|-------------------------9-7-9-|
|-------------------------------------------------------------|
|-------------------------------------------------------------|
|-------------------------------------------------------------|


|---------------------------------------------|
|-7-8--10-8-7-8-7-----------------------7-----|
|-----------------9-7-4-5--7--9---7--9--------|
|---------------------------------------------|
|---------------------------------------------|
|---------------------------------------------|


|--------------------------------|   |------|
|--------------------------------|   |------|
|--------------------------------|   |-5--7-|
|--------------------------------|   |-5--7-|
|--------------------------------|   |-3--5-|
|-0--0-0-0--0--0--0-0--0-0-3-2-3-|10X|------| (2x)


|------------------------------------------------|--------------------------------------------------|
|------------------------------------------------|---------------------------------------------------|
|--------------------------5-------7---9---5-----|----------------------------5--------7---9---5-----|
|--------------------------5---5---7---9---5---5-|----------------------------5----5---7---9---5---5-|
|--------------------------3---5---5---7---3---5-|----------------------------3----5---5---7---3---5-|
|-0--0-0-0--0--0--0-0--0-0-----3---------------3-|-0--0-0-0--0--0--0-0-3-2-3-------3---------------3-|


|--------------------------------|   |------|
|--------------------------------|   |------|
|--------------------------------|   |-5--7-|
|--------------------------------|   |-5--7-|
|--------------------------------|   |-3--5-|
|-0--0-0-0--0--0--0-0--0-0-3-2-3-|10X|------|


|------------------------------------------------|--------------------------------------------------|
|------------------------------------------------|---------------------------------------------------|
|--------------------------5-------7---9---5-----|----------------------------5--------7---9---5-----|
|--------------------------5---5---7---9---5---5-|----------------------------5----5---7---9---5---5-|
|--------------------------3---5---5---7---3---5-|----------------------------3----5---5---7---3---5-|
|-0--0-0-0--0--0--0-3-2-3------3---------------3-|-0--0-0-0--0--0--0-0-3-2-3-------3---------------3-|


|--------------------------------|
|--------------------------------|
|--------------------------------|
|--------------------------------|
|--------------------------------|
|-0--0-0-0--0--0--0-0--0-0-3-2-3-|(2x)


Solo 3:

|----------------12-14-15-15B|------------------------------------------------|
|------------------------------15B-15-13-12-13-12-13-12----------------------|
|7BR-----9-9-9s7----------------------------------------12-------------------|
|----------------------------------------------------------12-9--9-10-9-10-9-|
|----------------------------------------------------------------------------|
|----------------------------------------------------------------------------|


|-------------------------------------------------12-12-12-12-12-12-12-14-15-14--|
|-------------------15B|--15B|--15B-15b15b15b15b15b------------------------------|
|--------------------------------------------------------------------------------|
|-10-9---------------------------------------------------------------------------|
|------10-5-3-2-3-2--------------------------------------------------------------|
|--------------------------------------------------------------------------------|


|--17-19-17-15-19-14-15-14-12------15-19-15--------------------------------------------------------|
|--------------------------------17---------17--------------------------------7-8-10---------------|
|------------------------------16--------------16-7-5---5-4-5-4---4-5-7-9-7-9--------9-7-----------|
|-----------------------------------------------------5---------7------------------------9-7-5-4---|
|------------------------------------------------------------------------------------------------5-|
|--------------------------------------------------------------------------------------------------|


|---------------------------------------------------------------------------------------|
|----------------------------------15b--15-13-12-13-12-13-12----------------------------|
|-4-5-7-5-4-5-4----------------------------------------------12-------------------------|
|---------------7-5-3-2-3-2-0-----------------------------------12-9--9-10-9-10-7-9-7---|
|-----------------------------3-2-------------------------------------------------------|
|---------------------------------------------------------------------------------------|


|--------------------------------------------|
|--------------------------------------------|
|--------------------------------------------|
|-5-7-5-7-5-4-4--4-------------12-14b--------|
|---------------5--7-5-4-3-2-0---------------|
|--------------------------------------------|


|--------------------------------------------------------------|
|---------------------7---------7-8--7------------10-8-7-------|
|--9--9---9-----9---9---9-----9---------9-7---------------9-7--|
|-------9-----9---9---------9----------------10-9--------------|
|--------------------------------------------------------------|
|--------------------------------------------------------------|(4x)


|-----------------------|------------------|-----------------------|--------------------|
|-----------------------|------------------|-----------------------|--------------------|
|---9----7-----7----7---|---9-----7-----9--|---9----7-----7----7---|----9-----7---------|
|-9----9----9-----9---9-|-9----9-----9-----|-9----9----9-----9---9-|--9----9-----9--10--|
|-----------------------|------------------|-----------------------|--------------------|
|-----------------------|------------------|-----------------------|--------------------|


|-----------------------|------------------|-----------------------|--------------------|
|-----------------------|------------------|-----------------------|--------------------|
|---9----7-----7----7---|---9-----7-----9--|---9----7-----7----7---|----9-----5------7B-|
|-9----9----9-----9---9-|-9----9-----9-----|-9----9----9-----9---9-|--9----9-----5------|
|-----------------------|------------------|-----------------------|--------------------|
|-----------------------|------------------|-----------------------|--------------------|


|-----------------------------------------------------|--------------------------------------------7-10B
|--7-8-7---------------------------7-8--7-------------|--7-8--7------------------------8-7-8B|---10-----
|9-------9-9-7-7-----7------------9--------9-9-7-7----|9--------9-9-7-7-----7--------------------------
|----------------9-----9-9-5-7--------------------9-7B|-----------------9-----9-9-5-7------------------
|-----------------------------------------------------|------------------------------------------------
|-----------------------------------------------------|------------------------------------------------


|--------------------------------|---------------------------|
|-----7-8-7----------------------|-----7-8-7-----------------|
|---9-------9--7--7-9-9-7-7-9-9-7|---9-------9-7--7-9-9-7-9--|
|-9------------------------------|-9-------------------------|
|--------------------------------|---------------------------|
|--------------------------------|---------------------------|


|--------------------------------|-----------------------|
|-----7-8-7----------------------|-----7-8-7-------------|
|---9-------9--7--7-9-9-7-7-9-9-7|---9-------9-----------|
|-9------------------------------|-9------------9--9--7B-|
|--------------------------------|-----------------------|
|--------------------------------|-----------------------|
  • 1
  • 2
  • 3
  • 4
  • 5
  • 6
  • 7
  • 8
  • 9
  • 10
  • 11
  • 12
    Acordes para:
      Composição: Steve HarrisColaboração e revisão:

      0 comentários

        mostrar mais comentários

        Conseguiu tocar?

        5tocaram0ainda não

        Grave um vídeo tocando When The Wild Wind Blows e mande pra gente!

        00:00 / 00:00
        outros vídeos desta música
        repetirqualidadeautomática
        • automática
        Outro vídeos desta música
          00:00 / 00:00
          automática
          • automática
          Acordes para:violão e guitarra
          dificuldadeexibiçõescontribuições
          1 versão de Tab de baixoexibiçõescontribuições
          1 versão de Guitar Proformatodownloadscontribuição
          fecharplay/pause subir/descer velocidade
            acordes
            fechar
            OK
            Feedback