Cifra Club

Nada Puede Más

Isa TKM

Cifra: Principal (violão e guitarra)
Tom: D
D
E|------------------------------------------|
B|--5/7--5--2--2--3--7--5--3--2--3--2--0----|
G|----------------------------------------3-|
D|------------------------------------------|
A|------------------------------------------|
E|------------------------------------------|

E|----------------------------------------------------|
B|--5/7--5--2--2--3--7--5--3--2--3--2--3--2---0/2--0--|
G|------------------------------------------3---------|
D|----------------------------------------------------|
A|----------------------------------------------------|
E|----------------------------------------------------|

Bm                         G
Tuve que mirar aun más a dentro de mí
         D                A
Para comprender que has estado sempre allí
Bm                      G
Yo solía imaginar que era mío tu amor
       D                    A
Y nunca perdí la fe en mi corazón

Ponte:
 Em                  G             Em                G          A
Poder despertar y me vi llegar nuestras vidas se tenían que cruzar

Refrão:
        D                           A
Y ahora nada puede más que el beso que me dio tu amor
       G                    A                 D
Ahora nada puede más que la voz del corazón y ya nada
                        A                        G
Puede más que el beso que me dio tu amor ahora nada puede más
      A         G               D
Que tenete que saber que somos dos.

Bm                      G            D                  A
Quiero conocer un poco más de ti, abrasarte más y nunca dejarte ir
Bm                               G                       D                        A
Que no muera la ilusion por el tiempo que vendrá y que nuestro amor no deje de brillar

(Ponte)

(Refrão)
exibições 7.115
Acordes para:
    Composição: Lopez Rossi-Durand / Pablo Durand Colaboração e revisão:
    • Jullia
    • Ana Peres

    0 comentários

    mostrar mais comentários

    Conseguiu tocar?

    1 tocaram 0 ainda não

    Grave um vídeo tocando Nada Puede Más e mande pra gente!

    00:00 / 00:00
    outros vídeos desta música
    repetir qualidade Automático
    Outros vídeos desta música
    00:00 / 00:00
    Automático
    OK