Cifra Club

Minha Morada

Isadora Pompeo

Cifra: Principal (violão e guitarra)
exibições 404.403
Tom: Em
[Intro]  Em7  C

E|----------------------------------------|
B|----------------------------------------|
G|----7----4----9----9----7----4----------|
D|----------------------------------------|
A|----------------------------------------|
E|----------------------------------------|

E|---------------------------------------------|
B|---------------------------------------------|
G|----7----4----9----9----7----4----2----------|
D|---------------------------------------------|
A|---------------------------------------------|
E|---------------------------------------------|

E|----------------------------------------|
B|----------------------------------------|
G|----4----2----4----5p4------------------|
D|----------------------------------------|
A|----------------------------------------|
E|----------------------------------------|

E|----------------------------------------|
B|----------------------------------------|
G|----4----2----4----5p2------------------|
D|----------------------------------------|
A|----------------------------------------|
E|----------------------------------------|

Em7          C     Em7        C
Jesus, cadê Você?  Jesus, pode entrar
Em7         C                 G          D/F#
Jesus, só vou ficar se você vier, se você vier

 Em7                      C
Olho para mim e vejo um pequeno mortal
 Em7                       C
Olho para dentro e penso: não quero ser igual
 Em7                       C
Olho para minhas mãos: cansei do natural
 Em7                             C                D4    D
Olho pro meu coração: eu busco o Sobrenatural de Deus

Em7                      C
Toma as minhas mãos eu não preciso delas
       G                 D/F#
Se não for pra te tocar pode ficar com elas
Em7                  C
Toma meu coração eu não preciso dele
       G                 D/F#
Se não for pra te sentir, tira ele de mim

( Em7  C  G  D/F# )

Em7          C     Em7        C
Jesus, cadê Você?  Jesus, pode entrar
Em7         C               G         D/F#
Jesus, só vou ficar se você vier, se você vier

 Em7                      C
Olho para mim e vejo um pequeno mortal
 Em7                       C
Olho para dentro e penso: não quero ser igual
 Em7                       C
Olho para minhas mãos: cansei do natural
 Em7                             C               D4    D
Olho pro meu coração: eu busco o Sobrenatural de Deus

Em7                      C
Toma as minhas mãos eu não preciso delas
       G                 D/F#
Se não for pra te tocar pode ficar com elas
Em7                    C
Toma meu coração eu não preciso dele
       G                 D/F#
Se não for pra te sentir, tira ele de mim

                     Em7
Eu encontrei minha morada
             C
Eu amo minha morada
            G        D/F#
Tu és minha morada

Em7                      C
Toma as minhas mãos eu não preciso delas
       G                D/F#
Se não for pra te tocar pode ficar com elas
Em7                    C
Toma meu coração eu não preciso dele
       G                 D/F#
Se não for pra te sentir, tira ele de mim

                         Em7
Porque quando eu entro no Pai
                  C
Então eu sou um com Ele
               G
Então nada mais importa, importa que
    D/F#
eu seja um
             Em7
Porque quando eu sou, seus pensamentos
      C                   G
são os meus, a sua voz é minha voz
                   D/F#
E eu sou teu e Tú és meu
                       Em7
Por isso eu amo minha Morada
                    C
Ninguém tira minha morada
                    G  D/F#
Eu não troco minha morada
                     Em7
Eu não negocio minha morada
                        C
Nenhum homem arranca minha Morada
                      G                 D/F#
Porque Jesus é minha Morada, ele é minha morada

Em7                      C
Toma as minhas mãos eu não preciso delas
       G                 D/F#
Se não for pra te tocar pode ficar com elas
Em7                    C
Toma meu coração eu não preciso dele
       G                 D/F#
Se não for pra te sentir, tira ele de mim
Acordes para:

    0 comentários

      mostrar mais comentários

      Conseguiu tocar?

      71tocaram14ainda não

      Grave um vídeo tocando Minha Morada e mande pra gente!

      00:00 / 00:00
      outros vídeos desta música
      repetirqualidadeAutomático
      Outro vídeos desta música
        00:00 / 00:00
        OK