Cifra Club

Oi, Jesus

Isadora Pompeo

Cifra: Principal (violão e guitarra)
exibições 536.116
Tom: D
[Intro] D  A9  Bm7 G

   D              A9
E|-2---2---2/5-----------0----------------------------|
B|----------------2---2-------------------------------|
G|---2---2--------------------------------------------|
D|------------------2---2-----------------------------|
A|----------------------------------------------------|
E|----------------------------------------------------|

   Bm7              G
E|----------0h2---------------------------------------|
B|-3---3------------0---0----3------------------------|
G|----------------------------------------------------|
D|---0---0------------0----0--------------------------|
A|----------------------------------------------------|
E|----------------------------------------------------|

D
Oi, Jesus
A9
Oi, Jesus
 Bm7
Podes me ver?
 G
Podes me ouvir?

D
Oi, Jesus
A9
Oi, Jesus
 Bm7
Podes me ver?
 G
Podes me ouvir?

 D
Tô te esperando no meu quarto
A9
  Pra te contar os meus segredos
Bm7                                G
   Pra te lembrar o quanto eu, o quanto eu

Te amo

 D
Tô ansioso pra te ver
A9
  Esperando você vir pra mim
Bm7                   G
  Ansiando te tocar, te tocar

Tocar você

D                                   A9
Um dia sem você é como a morte pra mim
                              Bm7
Pois só sei viver com você aqui
                           G
Porque com você, então eu posso ser

Vem aqui!

D                                      A9
E faça do meu quarto, o seu quarto também
                                  Bm7
E do meu coração, uma casa pra você
                                       G
Toma a minha chave, não precisa fazer cópia

               D  A9
Dou ela pra você
               Bm7
Dou ela pra você
      G        D
Por que, por que
          A9
Eu amo Jesus
          Bm7
Eu amo Jesus
          G
Eu amo Jesus

D                                   A9
Um dia sem você é como a morte pra mim
                              Bm7
Pois só sei viver com você aqui
                           G
Porque com você, então eu posso ser

Vem aqui!

D                                      A9
E faça do meu quarto, o seu quarto também
                                  Bm7
E do meu coração, uma casa pra você
                                       G
Toma a minha chave, não precisa fazer cópia

               D  A9
Dou ela pra você
               Bm7
Dou ela pra você
      G        D
Por que, por que
          A9
Eu amo Jesus
          Bm7
Eu amo Jesus
          G
Eu amo Jesus

      D
Por que
          A9
Eu amo Jesus
          Bm7
Eu amo Jesus
          G
Eu amo Jesus

D
Oi, Jesus
A9
Oi, Jesus
 Bm7
Podes me ver?
 G
Podes me ouvir?
Acordes para:
    Colaboração e revisão:

    0 comentários

    mostrar mais comentários

    Conseguiu tocar?

    112tocaram38ainda não

    Grave um vídeo tocando Oi, Jesus e mande pra gente!

    00:00 / 00:00
    outros vídeos desta música
    repetirqualidadeAutomático
    Outro vídeos desta música
      00:00 / 00:00
      OK