Cifra Club

Aprenda

Lugar Algum

Isaque Nunes

Cifra: Principal (violão e guitarra)
tom: Bb (forma dos acordes no tom de G) Capotraste na 3ª casa
[Intro] Am  G  C  F

Am
  Me encontrei
G
  Mas me perdi
C
  Eu então busquei
F
  Quem não quis vir

Am
  Até tentei
G
  Não desistir 
C
  Então gritei
F
  Podes me ouvir?

( Am  G  C  F )

[Dedilhado]

   Am       C        G        F
E|------------------------------------------|
B|-5---5----3---3----5---5----1---1---------|
G|---5---5----4---4----5---5----2---2-------|
D|------------------------------------------|
A|-0-----------------3----------------------|
E|----------3-----------------1-------------|

Am
  A cada tic tac
G
  Me lanço ao medo
C
  E é em segredo 
F
  Que posso chorar

Am
  Não tenho pressa 
G
  Pra me curar
C
  A vida expressa 
F
  E logo vai passar

Am
  Perdas são normais
G
  Mas causam tanta dor
C
  Dor pela qual chamo, 
F
  Com carinho e amor

Am
  Tanto aprendi 
G
  E me dediquei 
C
  Que hoje eu senti
F
  O que é ser rei

Am
  Rei de um império
G
  Sem glamour nem cor
C
  Criado com egos
F
  De um ser interior

( Am  G  C  F )

Am
  Se servir 
G
  Pode ajudar
C
  Estou aqui 
F
  Para te entregar
Am
  Todo império
G
  Que encontrar
C
  Te dou o cetro 
F
  Sou seu novo lar

[Dedilhado]

   Am       C        G        F
E|------------------------------------------|
B|-5--------3--------5--------1-------------|
G|------------------------------------------|
D|------------------------------------------|
A|-0-----------------3----------------------|
E|----------3-----------------1-------------|

Am
  Mantenha a peça
C
  Viva em cartaz 
G
  Pois já não se fazem
F
  Seres tão reais
Composição de Isaque Nunes
Colaboração e revisão:
  • Isaque Nunes
3 exibições
    • ½ Tom
    • A
    • Bb
    • B
    • C
    • Db
    • D
    • Eb
    • E
    • F
    • F#
    • G
    • Ab
  • Adicionar à lista

    0 comentários

    Ver todos os comentários

    Conseguiu tocar?

    2 Tocaram 0 Ainda não

    Grave um vídeo tocando Lugar Algum e nos envie!

    00:00 / 00:00
    outros vídeos desta música
    repetir qualidade Automático
    Outros vídeos desta música
    00:00 / 00:00
    Automático

    Cifra Club Pro

    Aproveite o Cifra Club com benefícios exclusivos e sem anúncios
    Cifra Club Pro
    Aproveite o Cifra Club com benefícios exclusivos e sem anúncios
    OK