Cifra Club

Aprenda

Pretobrás

Itamar Assumpção

Cifra: Principal (violão e guitarra)
Quer fazer aulas de música com a gente? Responda essas perguntas
e nos ajude nesse projeto! →
tom: G
Quando acordei tava aqui
Entre São Paulo e o mangue
Brasil via MTV
Num clip de bang bang
Nem bem cheguei me feri
Foi bala na cidade grande

[A partir daqui manter por toda a música, exceto no solo em que ocorrem variações de espaço]


E|----------------------------------------------------------|
B|----------------------------------------------------------|
G|----------------------------------------------------------|
D|----------------------------------------------------------|
A|-2-4-5--0----2--------------2-4-5--0----2--3--2-----------|
D|--------0----2---------------------0----2--3--2-----------|

E|----------------------------------------------------------|
B|----------------------------------------------------------|
G|----------------------------------------------------------|
D|----------------------------------------------------------|
A|-2-4-5--0----2--------------2-4-5-------------------------|
D|--------0----2--------------------------------------------|


Compondo sobrevivi
E cantar estancou o meu sangue
Cantar estancou o meu sangue
Cantar estancou o meu sangue

Nasci moleque saci
Daí que eu nunca me entregue
Mando um recado pra ti
Certeza que noite chegue


[Solo]


Assim que te conheci
Ardi no fogo da febre
Deus sabe o quanto sofri
O resto o cão que carregue

Um belo dia parti
Cumbica Deutschland
Na volta num duty free
Comprei um bom bumerangue

Sou pretobrás e daí
Eu rezo cantando reggae
Sou Cruz e Sousa Zumbi Paulo Leminski
Mas samba is another bag
Mas samba is another bag
Mas samba is another bag
Composição de Itamar Assumpção
Colaboração e revisão:
  • Renato Pugliese
1.144 exibições
    • ½ Tom
    • A
    • Bb
    • B
    • C
    • Db
    • D
    • Eb
    • E
    • F
    • F#
    • G
    • Ab
  • Adicionar à lista

    0 comentários

    Ver todos os comentários

    Conseguiu tocar?

    0 Tocaram 0 Ainda não

    Grave um vídeo tocando Pretobrás e nos envie!

    00:00 / 00:00
    Outros vídeos desta música
    Repetir Qualidade Automático
    Outros vídeos desta música
    00:00 / 00:00
    Automático

    Cifra Club Pro

    Aproveite o Cifra Club com benefícios exclusivos e sem anúncios
    Cifra Club Pro
    Aproveite o Cifra Club com benefícios exclusivos e sem anúncios
    OK