Cifra Club

Aprenda

Salapi

Itchyworms

Cifra: Principal (violão e guitarra)
tom: G
tabbed by: dudok
tuning: standard

Intro:

e|------------------|
B|5-5-5\7\10-7-5-7-2|
G|4-4-4\6\9--6-4-6-2| 2x
D|------------------|
A|------------------|
E|------------------|

e|---------------------------------------------------------|
B|5-5-5\7\10-7--5--7---------------------------------------|
G|4-4-4\6\9--6--4--6--5-----4--5---------------------------| 
D|--------------------5--7--4--5---------------------------|
A|-----------------------7-----------9--9--7--9--9--9--7--9|
E|-----------------------------------7--7--5--7--7--7--5--7|
                                    (         ***          )

G     D     ***
Sa mundong bitin
G     D     ***
may librong itim

Chorus:
A5
Di malaman-laman ang sanhi
A
Di makita-kita ang ngiti
A5                     F     ***
Pahingi nman ako ng konting salapi

G   D   ***
May mga kabit
G    D    ***
At malulupit     (gawin nyo ung fret tapping na:  B|--10-12| repeatedly)
(chorus)
(adlib)

G    D     ***
Ang puting asin
G     D   ***
Di pinapansin
(chorus)

ending:
e|----------------------------------------|
B|----------------------------------------|
G|----------------------------------------|
D|----------------------------------------|
A|9-9-7-9-9-9-7-9--9-7-7-9-7-7--9-7-9-7--9|
E|7-7-5-7-7-7-5-7--7-5-5-7-5-5--7-5-7-5--7|

(p.s. hndi po ako sure sa lhat ng yan...hehe...d ako magaling..yan lng narinig ko...
pls rate...thank you! ^_^)
(p.s. nkalagay po ung asterisk sa intro tab...un po ung tugtugin nyo sa parts na may
asterisk...naka2tamad ksi ilagay ng paulit-ulit...)
Compositor não encontrado.
216 exibições
    • ½ Tom
    • A
    • Bb
    • B
    • C
    • Db
    • D
    • Eb
    • E
    • F
    • F#
    • G
    • Ab
  • Adicionar à lista

    0 comentários

    Ver todos os comentários

    Conseguiu tocar?

    0 Tocaram 0 Ainda não

    Grave um vídeo tocando Salapi e nos envie!

    00:00 / 00:00
    Outros vídeos desta música
    Repetir Qualidade Automático
    Outros vídeos desta música
    00:00 / 00:00
    Automático

    Cifra Club Pro

    Aproveite o Cifra Club com benefícios exclusivos e sem anúncios
    Cifra Club Pro
    Aproveite o Cifra Club com benefícios exclusivos e sem anúncios
    OK