Cifra Club

Anything But The Truth

Jack Johnson

Cifra: Principal (violão e guitarra)
tom: A
Intro 2x: E  A  C#m  F#m
E|----------------------------------------------------------2-----|
B|-------------0------------2h3---------------5-----------2---2---|
G|-------1h2-----2------2-------2-----------6---6---6---2-------2-|
D|---2-------------2------2-------2-------6-------6---------------|
A|-----2--------------0-------------0-2/4-------------------------|
E|-0---------0----------------------------------------2-----------|

        E
If they tell me that the bees
             A
Don't make honey anymore
     C#m                        F#m
Then what am I supposed to tell you?
            E
And if they tell me that the ocean
     A
Is tired of her shores
             C#m                        F#m
Then tell me what am I supposed to tell you?
                      A
When I can't tell you anything
        F#m
But the truth
                 A
I can't tell you anything
        F#m
But the truth
      E                    A
What happens to an eagle's nest in a storm
C#m
How does the mama
         F#m
Keep the baby warm
    E                           A
The wind Is telling us that its time
    C#m                        F#m
And what if we're not ready to fly
                      A
When I can't tell you anything
        F#m
But the truth
                 A
I can't tell you anything
        F#m       E
But the truth
               A                 C#m
Tree tops they touch the ground
                    F#m
In the morning walk with no sound
        E              A
Hear no birds, hear no planes
            C#m           F#m
Through the mud, feel the clay
         E           A
Build it up, make it sing,
         C#m            F#m
Make it strong, give it wings.
                     A
But I can't tell you anything
        F#m
But the truth
                     A
And I can't tell you anything
        F#m
But the truth
E
What is this place?
    A
Who am I?
           C#m          F#m
Why did we come here?
E
What is this place?
    A
Who am I?
           C#m          F#m     E
Why did we come here?
             A             C#m
I don't know I don't know

But I don't know
           F#m              E
That we're meant to know
                  A             C#m
I don't know, no, I don't know

But I don't know
           F#m
That we're meant to know

Final 2x: E  A  C#m  F#m
E|----------------------------------------------------------2-----|
B|-------------0------------2h3---------------5-----------2---2---|
G|-------1h2-----2------2-------2-----------6---6---6---2-------2-|
D|---2-------------2------2-------2-------6-------6---------------|
A|-----2--------------0-------------0-2/4-------------------------|
E|-0---------0----------------------------------------2-----------|
00:00 / 00:00
Outros vídeos desta música
Repetir
Outros vídeos desta música
Composição de Jack Johnson
Colaboração e revisão:
  • Fernando Gasparini
7.298 exibições
    • ½ Tom
    • A
    • Bb
    • B
    • C
    • Db
    • D
    • Eb
    • E
    • F
    • F#
    • G
    • Ab
  • Adicionar à lista

    0 comentários

    Ver todos os comentários

    Conseguiu tocar?

    2 Tocaram 0 Ainda não

    Grave um vídeo tocando Anything But The Truth e nos envie!

    Entre para oCifra Club PRO

    Tenha acesso a benefícios exclusivos no App e no Site

    • Chega de anúncios

    • Prioridade de compra em lançamentos

    • Mais recursos no app do Afinador

    • Atendimento Prioritário

    • Descontos nos produtos Cifra Club

    • Ajude a produzir mais conteúdo

    00:00 / 00:00

    Cifra Club Pro

    Aproveite o Cifra Club com benefícios exclusivos e sem anúncios
    Cifra Club Pro
    Aproveite o Cifra Club com benefícios exclusivos e sem anúncios
    OK