Constellations

Jack Johnson

Composição de: Jack Johnson
tom: Bb (forma dos acordes no tom de A ) Capotraste na 1ª casa
[Intro]

      G               F              C                D
E|-5-4-5-7-5-4---|-3-----7-5-3---|---------------|-------4-------|
B|-------------5-|---3---------5-|-3-----5-------|-5-------7-5---|
G|---------------|-----4---------|---2-----4-----|---4---------4-|
D|---------------|---------------|-----4-----6---|-----6---------|
A|---------------|---------------|---------------|-7-------------|
E|-5-------------|-3-------------|-5-------------|---------------|

  G
The light was leaving in the west it was blue
  C                      G
The children's laughter sang
And skipping just like the stones they threw
  C                             C
Their voices echoed across the way
D7
It's getting late

G           F            C
And it was just another night
        D7           G
With a sunset and a moonrise
 F          C                 D7
Not so far behind to give us just enough light
 G          F                C
To lay down underneath the stars
                D7             G
We listened to papa's translations
         F                  C
Of the stories across the skies
            D7             G
We drew our own constellations

[Solo]

E|-4-------6----4---8----6-----4--|
B|--------------------------------|
G|----5/6---6/5--------8/6---6/5--|
D|--------------------------------|
A|--------------------------------|
E|--------------------------------|

E|---------------------------------4-----6-----4-|
B|-6/4-----------------------2/4-----------------|
G|-----6-1/3-3/5---------3/5--------5/6---6/5----|
D|-----------------------------------------------|
A|-----------------------------------------------|
E|-----------------------------------------------|

E|-8-6----------------4/1--------1/4-1-|
B|------9-6-9/11-9---------4/1-4-------|
G|-------------------------------------|
D|-------------------------------------|
A|-------------------------------------|
E|-------------------------------------|

E|-------------------------------------|
B|-4/1---------------------------------|
G|-----3/1-1-1/3-1---------------------|
D|-------------------------------------|
A|-------------------------------------|
E|-------------------------------------|

  G
The west winds often last too long
C
And when they calm down, nothing ever
           G
Feels the same
Sheltered under the Kamani tree
 C                       G
Waiting for the passing rain
Clouds keep moving to uncover the sea
  C                                 G
Stars up above us chasing the day away
To find the stories that we sometimes need
 C
Listen close enough and all else fades
 D7
Fades away

G           F            C
And it was just another night
        D7           G
With a sunset and a moonrise
 F            C               D7
Not so far behind to give us just enough light
 G          F                C
To lay down underneath the stars
          D7
Listen to all translations
G        F                  C
Of the stories across the sky
            D7
We drew our own constellations
Página 1 / 1

Letras e título
Acordes e artista

resetar configurações
OK