Cifra Club

Constellations

Jack Johnson

Cifra: Principal (violão e guitarra)
tom: G
Afinação: D A D G B E

[Intro] G  F  C  D
        G  F  C  D
        G  C  G  C

   G               F
E|-3p2h3/5\3p2-----1-----5p3p1--------------|
B|-------------3-----1-----------3----------|
G|---------------------2-------0------------|
D|-----------------------------0------------|
A|------------------------------------------|
E|-5---------------3------------------------|

    C           D
E|--------------------2p0-------------------|
B|-1-----3p1----3---------3-----------------|
G|---0-------0----2---------0---------------|
D|-----2-----0------4-------0---------------|
A|-3---------3------------------------------|
E|--------------0---------------------------|

  G
The light was leaving in the west it was blue
  C                      G
The children's laughter sang
And skipping just like the stones they threw
  C                             C
Their voices echoed across the way
D7
It's getting late

G           F            C
And it was just another night
        D7           G
With a sunset and a moonrise
 F          C                 D7
Not so far behind to give us just enough light
 G          F                C
To lay down underneath the stars
                D7             G
We listened to papa's translations
         F                  C
Of the stories across the skies
            D7             G
We drew our own constellations

[Solo]

E|-4-------6----4---8----6-----4--|
B|--------------------------------|
G|----5/6---6/5--------8/6---6/5--|
D|--------------------------------|
A|--------------------------------|
E|--------------------------------|

E|---------------------------------4-----6-----4-|
B|-6/4-----------------------2/4-----------------|
G|-----6-1/3-3/5---------3/5--------5/6---6/5----|
D|-----------------------------------------------|
A|-----------------------------------------------|
E|-----------------------------------------------|

E|-8-6----------------4/1--------1/4-1-|
B|------9-6-9/11-9---------4/1-4-------|
G|-------------------------------------|
D|-------------------------------------|
A|-------------------------------------|
E|-------------------------------------|

E|-------------------------------------|
B|-4/1---------------------------------|
G|-----3/1-1-1/3-1---------------------|
D|-------------------------------------|
A|-------------------------------------|
E|-------------------------------------|

  G
The west winds often last too long
C
And when they calm down, nothing ever
           G
Feels the same
Sheltered under the kamani tree
 C                       G
Waiting for the passing rain
Clouds keep moving to uncover the sea
  C                                 G
Stars up above us chasing the day away
To find the stories that we sometimes need
 C
Listen close enough and all else fades
 D7
Fades away

G           F            C
And it was just another night
        D7           G
With a sunset and a moonrise
 F            C               D7
Not so far behind to give us just enough light
 G          F                C
To lay down underneath the stars
          D7
Listen to all translations
G        F                  C
Of the stories across the sky
            D7
We drew our own constellations

[Final] G  F  C  D
        G  F  C  D

[tab - final]

   G               F
E|-3p2h3/5\3p2-----1-----5p3p1--------------|
B|-------------3-----1-----------3----------|
G|---------------------2-------0------------|
D|-----------------------------0------------|
A|------------------------------------------|
E|-5---------------3------------------------|

    C           D
E|--------------------2p0-------------------|
B|-1-----3p1----3---------3-----------------|
G|---0-------0----2---------0---------------|
D|-----2-----0------4-------0---------------|
A|-3---------3------------------------------|
E|--------------0---------------------------|
00:00 / 00:00
Outros vídeos desta música
Repetir
Outros vídeos desta música
Composição de Jack Johnson
134.773 exibições
    • ½ Tom
    • A
    • Bb
    • B
    • C
    • Db
    • D
    • Eb
    • E
    • F
    • F#
    • G
    • Ab
  • Adicionar à lista

    0 comentários

    Ver todos os comentários

    Conseguiu tocar?

    6 Tocaram 3 Ainda não

    Grave um vídeo tocando Constellations e nos envie!

    Entre para oCifra Club PRO

    Tenha acesso a benefícios exclusivos no App e no Site

    • Chega de anúncios

    • Prioridade de compra em lançamentos

    • Mais recursos no app do Afinador

    • Atendimento Prioritário

    • Descontos nos produtos Cifra Club

    • Ajude a produzir mais conteúdo

    00:00 / 00:00

    Cifra Club Pro

    Aproveite o Cifra Club com benefícios exclusivos e sem anúncios
    Cifra Club Pro
    Aproveite o Cifra Club com benefícios exclusivos e sem anúncios
    OK