Cifra Club

Goodbye

Jack Johnson

Cifra: Principal (violão e guitarra)
tom: Ab
    Eb
       Q    Q.    E  E  E       Q    Q    S S E  E  E
e||---------3-----3--3--3---|--------3----3---3--3--3----||
B||.--------4-----4--4--4---|--------4----4---4--4--4---.||
G||---------3-----3--3--3---|--------3----3---3--3--3----||
D||---------5--------5------|---5----5----3h5----5-------||  x 3.5
A||.---6--------------------|---6---------6------6------.||
E||-------------------------|----------------------------||

VERSO 1

     Q    Q    E     E   E   E   
e|--------3----3-----3---3---3---|
B|--------4----4-----4---4---4---|
G|--------3----3-----3---3---3---|
D|---5----5----5---------3-------|
A|---6---------------------------|
E|-------------------------------|
             I think it was  a

    Eb                 Eb/D               Cm                 Bb
    Q   Q.   E E E     Q   Q  E E E E     Q   Q.   E E E     Q   Q.   E E E   
e|------3----3-3-3--|------3--3-3-3-3--|------3----3-3-3--|------6----6-6-6--|
B|------4----4-4-4--|------4--4-4-4-4--|------4----4-4-4--|------6----6-6-6--|
G|------3----3-3-3--|------3--3-3-3-3--|------5----5-5-5--|------7----7-7-7--|
D|------5------3----|------5------3----|------5------3----|------8------8----|
A|--6----------6----|--5----------5----|--3---------------|------8-----------|
E|------------------|------------------|------------------|--6---------------|
     sign    when your cell-  phone fell          into the toilet, and then it


                                                          VERSE 2
    Ab                 Bb                 Eb
    Q   Q.   E E E     Q   Q.   E E E     Q   Q.   E E E     Q   Q.   E E E   
e|------4----4-4-4--|------6----6------|------3----3-3-3--|------3----3-3-3--|
B|------4----4-4-4--|------6----6-6-6--|------4----4-4-4--|------4----4-4-4--|
G|------5----5-5-5--|------7----7-7-7--|------3----3-3-3--|------3----3-3-3--|
D|------6------6----|------8------8-8--|------5------5----|------5------5----|
A|------6-----------|------8------8----|--6----------6----|--6----------6----|
E|--4---------------|--6---------------|------------------|------------------|
    spelled  the word           goodbye                      Back stage at the

    Eb                 Eb/D               Cm                 Bb
    Q   Q.   E E E     Q   Q.   E E E     Q   Q.   E E E     Q   Q.   E E E   
e|------3----3-3-3--|------3----3-3-3--|------3----3-3-3--|------6----6-6-6--|
B|------4----4-4-4--|------4----4-4-4--|------4----4-4-4--|------6----6-6-6--|
G|------3----3-3-3--|------3----3-3-3--|------5----5-5-5--|------7----7-7-7--|
D|------5------3----|------5------3----|------5------3----|------8------8----|
A|--6----------6----|--5----------5----|--3---------------|------8-----------|
E|------------------|------------------|------------------|--6---------------|
    shell     it was nice enough of it to tell      you farewell        before

                                                          VERSE 3
    Ab                 Bb                 Eb         Eb2     Eb
    Q   Q.   E E E     Q   Q.   E E E     Q   Q.   E E E     H+E  E E E E E   
e|------4----4-4-4--|------6----6-6-6--|------3----3-3-3--|--3----3-3-3-3-3--|
B|------4----4-4-4--|------6----6-6-6--|------4----4-4-4--|--4----4-4-4-4-4--|
G|------5----5-5-5--|------7----7-7-7--|------3----3-3-3--|--3------3-3-3-3--|
D|------6------6----|------8------8----|------5------3----|--5---------------|
A|------6-----------|------8-----------|--6----------6----|--6---------------|
E|--4---------------|--6---------------|------------------|------------------|
               it went        off to hell                   Well maybe it will

    Eb                 Eb/D              Cm                 Bb
    Q   Q.   E E E     Q   Q.   E E E     Q   Q.   E E E     Q   Q.   E E E   
e|------3----3-3-3--|------3----3-3-3--|------3----3-3-3--|------6----6-6-6--|
B|------4----4-4-4--|------4----4-4-4--|------4----4-4-4--|------6----6-6-6--|
G|------3----3-3-3--|------3----3-3-3--|------5----5-5-5--|------7----7-7-7--|
D|------5------3----|------5------3----|------5------3----|------8------8----|
A|--6----------6----|--5----------5----|--3---------------|------8-----------|
E|------------------|------------------|------------------|--6---------------|
    see    our two computers   down there       that were stolen on New Year's

    Ab                 Bb                 Eb
    Q   Q.   E E E     Q   Q.   E E E     W
e|------4----4-4-4--|------6----6-6-6--|--3---------------||
B|------4----4-4-4--|------6----6-6-6--|--4---------------||
G|------5----5-5-5--|------7----7-7-7--|--3---------------||
D|------6------6----|------8------8----|--5---------------||
A|------6-----------|------8-----------|--6---------------||
E|--4---------------|--6---------------|------------------||
  day,      I never really liked them anyway
00:00 / 00:00
Outros vídeos desta música
Repetir
Outros vídeos desta música
Composição de Jack Johnson
Colaboração e revisão:
  • Ricardo Grillo
3.369 exibições
    • ½ Tom
    • A
    • Bb
    • B
    • C
    • Db
    • D
    • Eb
    • E
    • F
    • F#
    • G
    • Ab
  • Adicionar à lista

    0 comentários

    Ver todos os comentários

    Conseguiu tocar?

    0 Tocaram 0 Ainda não

    Grave um vídeo tocando Goodbye e nos envie!

    Entre para oCifra Club PRO

    Tenha acesso a benefícios exclusivos no App e no Site

    • Chega de anúncios

    • Prioridade de compra em lançamentos

    • Mais recursos no app do Afinador

    • Atendimento Prioritário

    • Descontos nos produtos Cifra Club

    • Ajude a produzir mais conteúdo

    00:00 / 00:00

    Cifra Club Pro

    Aproveite o Cifra Club com benefícios exclusivos e sem anúncios
    Cifra Club Pro
    Aproveite o Cifra Club com benefícios exclusivos e sem anúncios
    OK