Cifra Club

High tide or low tide

Jack Johnson

Cifra: Principal (violão e guitarra)
tom: F
[ Ben Harper and Jack Johnson - High tide or low tide ]
[ Cover of Bob Marley ]


Intro - F  C  Dm A : Bb : A : Bb : F - 2X 

e|----5------------------------------------- |
b|------6-5-5------------------------------- |
g|--5---------5-7---7-10-9------------------ |
d|----------------7------------------------- |
a|------------------------------------------ |
E|------------------------------------------ |
                                             |
e|------------------------------------------ |
b|-5s6------6------6------6----------------- |
g|-----7------7------7------7--------------- |
d|-------8------8------8------8------------- |
a|------------------------------------------ |
E|------------------------------------------ |-- 2x
                                             |
e|-----------------5------------------------ |
b|---5------5------------5------------------ |
g|-----6------6------6------6--------------- |
d|-------7------7------7------7------------- |
a|------------------------------------------ |
E|------------------------------------------ |
                                             |
e|-----------------------5------------------ | 
b|---6------6------6-------6---------------- |
g|-----7------7------5-5-------------------- |
d|-------8------8--------------------------- |
a|------------------------------------------ |
E|------------------------------------------ |


        F     C        Dm  A     Bb                 A                        
Yes In high seas or-a low seas, I'm gonna be your friend;
                Bb                 F
You know that I'm gonna be your friend. And is a
        F   C         Dm  A    Bb              A  
In-a high tide or-a low tide, I'll be by your side; 
                Bb              F
You know that I'll be by your side. 
           
(Dm) 
  
Dm 
(I heard her praying - praying - praying) 
I said, I heard my mother; 
She was praying (praying - praying - praying); in the night 
Dm                      Gm 
And the words that she said (the words that she said), 
Dm                          Gm  
They still-a lingers in my head (lingers in my head). 
A                                                    Dm 
She said: A child is born in this world, He needs protection.   
Dm           Gm 
God, guide and protect us. 
Dm                     Gm 
When we're wrong, please correct us (when we're wrong, correct us), 
Bb | C 
And stand by me, in these
  
F     C        Dm  A     Bb                  A                        
high seas or-a low seas, I'm gonna be your friend;
                Bb                  F
You know that I'm gonna be your friend. And is a
        F   C         Dm  A    Bb              A  
In-a high tide or-a low tide, I'll be by your side; 
                Bb              F
You know that I'll be by your side.



1º solo - Ben Harper -- (F  C  Dm A : Bb : A : Bb : F)

e|--8-8-8-8---------------------------------
b|----------10----8-------------------------
g|-------------10---9-----7---7--10-9-------
d|--------------------10----7---------------
a|------------------------------------------
E|------------------------------------------

e|------------------------------------------
b|---6------6------6------6-----------------
g|-----7------7------7------7---------------
d|-------8------8------8------8-------------
a|------------------------------------------
E|------------------------------------------

e|-----------------5------------------------
b|---5------5------------5------------------
g|-----6------6------6------6---------------
d|-------7------7------7------7-------------
a|------------------------------------------
E|------------------------------------------
         
e|------------------------------------------
b|---6------6------6-5-3-1------------------
g|-----7------7-----------------------------
d|-------8------8--8-7-5-3------------------
a|------------------------------------------
E|------------------------------------------

(Dm)

2º solo
e|------------------------------------------
b|------------------------------------------
g|------------------------------------------
d|------------------------------------------
a|------------------------------------------
E|-8s10-12-10-8s10-8-6-5-6-5h6s5-3-1-3s5----

e|------------------------------------------
b|------------------------------------------
g|------------------------------------------
d|------------------------------------------
a|------------------------------------------
E|-6-5-8-3-1-3s5-3-1-3s5-6-5-6-8-8-10-12----

e|------------------------------------------
b|------------------------------------------
g|------------------------------------------
d|------------------------------------------
a|------------------------------------------
E|-10-8s9s10--------------------------------


Dm 
I said, I heard my mother; 
She was cryin' (I heard her cryin', cryin', cryin') in the night 
 Dm                    Gm 
And the tears that she shed (the tears that she shed), 
Dm                          Gm  
They still-a lingers in my head (lingers in my head). 
A                                                    Dm 
She said: A child is born in this world, He needs protection.   
Dm           Gm 
God, guide and protect us. 
Dm                     Gm 
When we're wrong, please correct us (when we're wrong, correct us), 
Bb | C 
And stand by me, in these
            

F     C        Dm  A     Bb                  A                        
high seas or-a low seas, I'm gonna be your friend;
                Bb                  F
You know that I'm gonna be your friend. And is a
        F   C         Dm  A    Bb              A  
In-a high tide or-a low tide, I'll be by your side; 
                Bb              F
You know that I'll be by your side.


Solo final - Ben Harper (F  C  Dm A : Bb : A : Bb : F)

e|--8-8-8-8---------------------------------------
b|----------10----8-------------------------------
g|-------------10---9-------7---7--10-9-10-12-10--
d|--------------------10-10---7-------------------
a|------------------------------------------------
E|------------------------------------------------

e|------------------------------------------
b|----------6------6------6-----------------
g|-----7------7------7------7---------------
d|-------8------8------8------8-------------
a|------------------------------------------
E|------------------------------------------

e|-----------------5------------------------
b|---5------5------------5------------------
g|-----6------6------6------6---------------
d|-------7------7------7------7-------------
a|------------------------------------------
E|------------------------------------------
         
e|-----------------------------8------------
b|---6------6------6-5-3s5s3-1--------------
g|-----7------7-----------------------------
d|-------8------8---------------------------
a|------------------------------------------
E|------------------------------------------



(Por Douglas Vaz Brevilieri)
00:00 / 00:00
Outros vídeos desta música
Repetir
Outros vídeos desta música
Composição de Bob Marley
78.960 exibições
    • ½ Tom
    • A
    • Bb
    • B
    • C
    • Db
    • D
    • Eb
    • E
    • F
    • F#
    • G
    • Ab
  • Adicionar à lista

    0 comentários

    Ver todos os comentários

    Conseguiu tocar?

    3 Tocaram 0 Ainda não

    Grave um vídeo tocando High tide or low tide e nos envie!

    Entre para oCifra Club PRO

    Tenha acesso a benefícios exclusivos no App e no Site

    • Chega de anúncios

    • Prioridade de compra em lançamentos

    • Mais recursos no app do Afinador

    • Atendimento Prioritário

    • Descontos nos produtos Cifra Club

    • Ajude a produzir mais conteúdo

    00:00 / 00:00

    Cifra Club Pro

    Aproveite o Cifra Club com benefícios exclusivos e sem anúncios
    Cifra Club Pro
    Aproveite o Cifra Club com benefícios exclusivos e sem anúncios
    OK