Cifra Club

No Other Way

Jack Johnson

Cifra: Principal (violão e guitarra)
Tom: E
Intro:
E|--0h2--0h2--0-----0--|--0h2--0h2--0-----------2--|
B|---------------2-----|-------------------0h2-----|
G|---------------------|----------------2----------|
D|--2----2----2--------|--2----2----2--------------|
A|---------------------|---------------------------|
E|---------------------|---------------------------|

E|---|-0h2--0h2--0-----0--|--0h2--0h2--0-----------|
B|---|--------------2-----|---------------2-----0--|
G|---|--------------------|------------------2-----|
D|---|-2----2----2--------|--2----2----2-----------|
A|---|--------------------|------------------------|
E|---|--------------------|------------------------|

Riff 1:                                              
E|-----------------------------------------------|
B|----------5------------------------------------|
G|-----4/6-----6----------------4----------------|   (2x)
D|-------------------2-----4/6-----6\2-----2-----|
A|-----------------------------------------------|
E|--0-------------0-----0---------------0-----0--|
    *                                      *Only on the first time
E|---|-----------------------------------------------|
B|---|-----------------------------------------------|
G|---|-----4/6-----6----------------4----------------|
D|---|----------7--------2-----4/6-----6\2-----2-----|
A|---|-----------------------------------------------|
E|---|--0-------------0-----0---------------0-----0--|

E|---|-----------------------------------------------|
B|---|----------5------------------------------------|
G|---|-----4/6-----6----------------4----------------|
D|---|-------------------2-----4/6-----6\2-----2-----|
A|---|-----------------------------------------------|
E|---|--0-------------0-----0---------------0-----0--|

Verso:
E|-----------------------------|-----------------------------|
B|-----------------------------|-----------------------------|
G|------1-----1----------------|--------2-----2-----2--------|
D|--2-----2-----2---6\4-2---2--|----2-----2-----2-----2---2--|
A|----2-----2-----2-------2----|--0---0-----0-----0-----0----|
E|-----------------------------|-----------------------------|

E|---|-----------------------------|-----------------------------|
B|---|-----------------------------|-----------------------------|
G|---|-----------------------------|--------2-----2-----2--------|
D|---|--------4-----4-----4--------|----2-----2-----2-----2---2--|
A|---|----4-----4-----4-----4---4--|--0---0-----0-----0-----0----|
E|---|--2---2-----2-----2-----2----|-----------------------------|

Refrão:
E|---------------------------------|
B|---------------------------------|
G|--------1---------4/2---2/1------|   (3x)
D|----2-----2---2-------6-----2----|
A|------2-----2---0-------------2--|
E|--0------------------------------|

E|---|-----------------------------|-----------------------------|
B|---|-----------------------------|-----------------------------|
G|---|-----------------------------|--------2-----2-----2--------|
D|---|--------4-----4-----4--------|----2-----2-----2-----2---2--|
A|---|----4-----4-----4-----4---4--|--0---0-----0-----0-----0----|
E|---|--2---2-----2-----2-----2----|-----------------------------|

Riff 2:
E|-----------------------------------------------|
B|-----------------------------------------------|
G|-----4/6-----6----------------4----------------|
D|----------7--------2-----4/6-----6\2-----2-----|
A|-----------------------------------------------|
E|--0-------------0-----0---------------0-----0--|

E|---|--------------------------------------------|
B|---|-------5------------------------------------|
G|---|--4/6-----6----------------4----------------|
D|---|----------------2-----4/6-----6\2-----2-----|
A|---|--------------------------------------------|
E|---|-------------0-----0---------------0-----0--|

E|---|----------------------------------------------|
B|---|-------7\5------------------------------------|
G|---|--4/6-------4----------------4----------------|
D|---|------------------2-----4/6-----6\2-----2-----|
A|---|----------------------------------------------|
E|---|---------------0-----0---------------0-----0--|

E|---|-----------------------------------------------|
B|---|-----------------------------------------------|
G|---|-----4/6-----6----------------4----------------|
D|---|----------7--------2-----4/6-----6\2-----2-----|
A|---|-----------------------------------------------|
E|---|--0-------------0-----0---------------0-----0--|

E
When your mind is a mess so is mine
          A
I can't sleep cause it hurts
                                   F#m
when I think my thoughts aren't at peace

with the plans that we make, the chances
     A
we take they're not yours they're not mine
                        E
there's waves that can break all the words
                                    A
that we said and the words that we mean
                                     F#m
words can fall short can't see the unseen
                                         A
cause the world is awake for somebody's sake
                                                   E
now please close your eyes woman please get some sleep

E                 B                A
and know that if I knew all of the answers
E                    B                         A
I would not hold them from you know all of the things
E                  B                        A
that I know we told each other "There is no other
 F#m   A
way"   Mmmmm mmm mmm mmmm

  E
Well too much silence can be misleading you're
  A
drifting

I can hear it in the way that you're breathing we
 F#m
don't really need to find reason 'cause out the same
 A
door

that it came well it's leaving, it's leaving.
 E
Leaving like a day that's done and part of a season
   A
resolve is just a concept that's as dead as the leaves
         F#m
but at least we could sleep it's all that we need when
    A
we wake we would find our minds will be free to go to
  E                     B             A               E
sleep and know that if I knew all the answers I would

not hold
              B            A             E
them from you know all the things that I know cause we
               B          A       F#m
told each other there is no other way...
 A            E
mmm mmm mmmm
exibições 89.136
Acordes para:
    Composição: Jack Johnson Colaboração e revisão:

    0 comentários

    mostrar mais comentários

    Conseguiu tocar?

    3 tocaram 0 ainda não

    Grave um vídeo tocando No Other Way e mande pra gente!

    00:00 / 00:00
    outros vídeos desta música
    repetir qualidade Automático
    Outros vídeos desta música
    00:00 / 00:00
    Automático
    OK