Cifra Club

The Sharing Song

Jack Johnson

Cifra: Principal (violão e guitarra)
tom: C
E|-----------x--------------x--------------x--------------|
B|----6-5-5--x---3-3-5-5----x------6-5-5---x---3-3-5-5----|
G|----5-5-5--x---4-4-5-5----x------5-5-5---x---4-4-5-5----| (Riff 1)
D|----5-5-5--x---5-5-5-5----x------5-5-5---x---5-5-5-5----|    
A|-----------x--------------x--------------x--------------|
E|-3---------x---3----------x---3----------x---3----------|

E|--------------x----------------x----------x------------x--------------x------------------|
B|-----8--10-10-x--11--11-10-10--x----6-5-5-x--3-3-5-5---x-----8--10-10-x--11--11-10-10---7|
G|-----9--10-10-x--10--10-10-10--x----5-5-5-x--4-4-5-5---x-----9--10-10-x--10--10-10-10---7|(Riff 2)
D|-----10-10-10-x--10--10-10-10--x----5-5-5-x--5-5-5-5---x-----10-10-10-x--10--10-10-10---7|
A|--------------x----------------x----------x------------x--------------x-----------------5|
E|--8-----------x----------------x---3------x--3---------x---8----------x------------------|


Introdução tocar Riff 1

It's always more fun  |(Riff 1)
To share with everyone|
It's always more fun  |(Riff 1) 
To share with everyone|

If you have two               |(Riff 2)
Give one to your friend       |
If you have three             |
Give one to your friend and me|


It's always more fun  |(Riff 1)
To share with everyone| 
It's always more fun  |(Riff 1)
To share with everyone|

If you've got one              |(Riff 2)
Here is something you can learn|
You can still share            |
Just by taking turns           |

If you've got a ball      | (Riff 1 estrofe inteira)
Bounce it to the gang     |
If there is a new kid     |  
Invite him out to hang    |

If you've got one sandwich| (Riff 1 estrofe inteira)
Cut that thing in half    |
If you know a secret joke |
Tell it and share a laugh |

If you've got two drumsticks|   (Riff 1 estrofe inteira)
Give one to your friend   |
Make one beautiful rhythm |
Share a beat that never ends|

And if you're feeling lonely| (Riff 1 estrofe inteira)
Share time with your mom    | 
Share some milk and cookies| 
And sing the sharing song  |

It's always more fun  | (Riff 1)
To share with everyone| 
It's always more fun  | (Riff 1)
To share with everyone|
00:00 / 00:00
Outros vídeos desta música
Repetir
Outros vídeos desta música
Composição de Adam Topol / Zach Gill
Colaboração e revisão:
  • felipe nyczka
12.132 exibições
    • ½ Tom
    • A
    • Bb
    • B
    • C
    • Db
    • D
    • Eb
    • E
    • F
    • F#
    • G
    • Ab
  • Adicionar à lista

    0 comentários

    Ver todos os comentários

    Conseguiu tocar?

    0 Tocaram 0 Ainda não

    Grave um vídeo tocando The Sharing Song e nos envie!

    Entre para oCifra Club PRO

    Tenha acesso a benefícios exclusivos no App e no Site

    • Chega de anúncios

    • Prioridade de compra em lançamentos

    • Mais recursos no app do Afinador

    • Atendimento Prioritário

    • Descontos nos produtos Cifra Club

    • Ajude a produzir mais conteúdo

    00:00 / 00:00

    Cifra Club Pro

    Aproveite o Cifra Club com benefícios exclusivos e sem anúncios
    Cifra Club Pro
    Aproveite o Cifra Club com benefícios exclusivos e sem anúncios
    OK