Cifra Club

Tomorrow Morning

Jack Johnson

Cifra: Principal (violão e guitarra)
tom: D
Intro:
E|---------2-x----------0-x--------------------3-x----------2-x-|
B|---------3-x----------2-x--------------------3-x----------3-x-|
G|-------2-2-x------2---2-x--------------------4-x--------2-2-x-|
D|-----0-0-0-x--0-4---2-2-x--x-4p2-0-----------5-x------0-0-0-x-|
A|-0-2-------x--------0-0-x-----------2p-0-----5-x--0-2-------x-|
E|-----------x------------x----------------2/3-3-x------------x-|

Riff 1:
E|---------2-x----------0-x--------------3-x----------2-x-|
B|---------3-x----------2-x--------------3-x----------3-x-|
G|-------2-2-x------2---2-x--------------4-x--------2-2-x-|
D|-----0-0-0-x--0-4---2-2-x--4-2-0-------5-x------0-0-0-x-|
A|-0-2-------x--------0-0-x--------0-----5-x--0-2-------x-|
E|-----------x------------x----------2/3-3-x------------x-|

Riff 2:
E|---------2-x----------0-x-------------------3-x---------x-|
B|---------3-x----------2-x-------------------3-x---------x-|
G|-------2-2-x------2---2-x-------------------4-x-------2-x-|
D|-----0-0-0-x--0-4---2-2-x--x-4p2-0----------5-x-----0-0-x-|
A|-0-2-------x--------0-0-x----------3--0-----5-x--0-2----x-|
E|-----------x------------x---------------2/3-3-x---------x-|

(Intro)

(Riff 1)
well that's alright
if that's alright
2000 miles we still
and that's alright

(Riff 2)
and that's alright
if that's alright
i'll see you in the morning
if that's alright

Verso:
 D                    F#m
what would you do if i wrote you a song
           Em7                  A7
would you give me some lovin when i get home
           D                F#m
or would you be mad at me if i had a hard time
          Em7                    G
gettin a hold of you, i try all the time

    D       F#m      Em7
i'll bet that
                A7                  D
you don't know anybody that could be
    F#m    Em7
so bad
       A7
but if you did
                   D
you'd be wondering where
     F#m
i'm at
       Em7                A7                  D  F#m  Em7  A7
i'll be home when tomorrow morning comes
Solo:
E|------------------2-x-----------------5-x------------------------------------5-x-|
B|------------------2-x-----------------5-x------------------------------------5-x-|
G|-------9p7--------2-x------11-14-11---6-x--------------------------5/7-6/7---6-x-|
D|--/7-9-----9/3----4-x--/12------------5-x------7-------------------5/7-6/7---5-x-|
A|------------------4-x-----------------7-x--7h9---9-7--------------5----------7-x-|
E|----------------2-2-x---------------5-5-x-------------10/-2--1-0-----------5-5-x-|

what would you do if i sang you this song
the connection is bad but that's only the phone
when my words kiss your ear
i'll be right there
the message is long
because baby this is your song

i'll bet that
you don't know anybody that could be
so bad
but if you did
you'd be wondering where
i'm at
well i'll be home when tomorrow morning...
i'll bet that
you don't know anybody that could be
so bad
but if you did
you'd be wondering where
i'm at
well i'll be home when tomorrow morning...
and that's alright
'cause i'll be home when tomorrow morning...
and that's allllright
'cause i'll be home when tomorrow morning comes.

( D )
00:00 / 00:00
Outros vídeos desta música
Repetir
Outros vídeos desta música
Composição de Jack Johnson
Colaboração e revisão:
  • Gustavo Silva
49.821 exibições
    • ½ Tom
    • A
    • Bb
    • B
    • C
    • Db
    • D
    • Eb
    • E
    • F
    • F#
    • G
    • Ab
  • Adicionar à lista

    0 comentários

    Ver todos os comentários

    Conseguiu tocar?

    0 Tocaram 0 Ainda não

    Grave um vídeo tocando Tomorrow Morning e nos envie!

    Entre para oCifra Club PRO

    Tenha acesso a benefícios exclusivos no App e no Site

    • Chega de anúncios

    • Prioridade de compra em lançamentos

    • Mais recursos no app do Afinador

    • Atendimento Prioritário

    • Descontos nos produtos Cifra Club

    • Ajude a produzir mais conteúdo

    00:00 / 00:00

    Cifra Club Pro

    Aproveite o Cifra Club com benefícios exclusivos e sem anúncios
    Cifra Club Pro
    Aproveite o Cifra Club com benefícios exclusivos e sem anúncios
    OK