Cifra Club

Aprenda

Buttercup

Jack Stauber

Cifra: Versão 2 (violão e guitarra)
tom: Bm
[Intro]

   Bm                                    Em
E|--7---------------------------7-------------|
B|--7---------------------------8-------------|
G|--7---------------------------9-------------|
D|--9---------------------------9-------------|
A|--9---------------------------7-------------|
E|--7-----------------------------------------|

   Em       Bm                      Em
E|--7------7-----------------7\---------------|
B|--8------7-----------------8\---------------|
G|--9------7---------7-----7/9\---------------|
D|--9------9----------------------------------|
A|--7------9----------------------------------|
E|---------7----------------------------------|

[Primeira Parte]

Bm                           Bm  Em
Forget it, I'll do it sometime
                           Bm
I'm locked up on the button
                        Bm  Em
Can't you do it sometime
                    Bm
Pushed it in too far
                    Bm  Em
Fine, electrify mine
                         Bm
Electrify my golden tooth
                       Bm  Em
Can't look at your eyes
                          
Without sparking some

     Bm    Em
E|---7-----7\---------------------------------|
B|---8-----7\---------------------------------|
G|---9-----7\---------------------------------|
D|--------------------------------------------|
A|--------------------------------------------|
E|--------------------------------------------|

[Refrão]

                 Bm    Em
Electrify my heart 
                 Bm    Em
Electrify my heart 

[Refrão]

    Bm                                   Em
E|------7--7-----7--7-------7--7-----7--7--|
B|------8--8-----8--8-------7--7-----7--7--|
G|------9--9-----9--9-------7--7-----7--7--|
D|---9--------9----------------------------|
A|---7--------7----------9--------9--------|
E|-----------------------7--------7--------|

[Solo]

[Guitarra 1]

E|-----10p7--14---12-12---10---9-9--10\7------|
B|--8-----------------------------------------|
G|--------------------------------------------|
D|--------------------------------------------|
A|--------------------------------------------|
E|--------------------------------------------|

E|---12-10----9-------------------------------|
B|---------------10--10-----------------------|
G|--------------------------------------------|
D|--------------------------------------------|
A|--------------------------------------------|
E|--------------------------------------------|

E|--15------12-10---9--9----------------------|
B|--------------------------------------------|
G|--------------------------------------------|
D|--------------------------------------------|
A|--------------------------------------------|
E|--------------------------------------------|

[Guitarra 2]

E|--------------------------------------------|
B|---8h10--8-8--10---8-8--10--12--12--15\7----|
G|--------------------------------------------|
D|--------------------------------------------|
A|--------------------------------------------|
E|--------------------------------------------|

[Segunda Parte]

Bm                             Bm  Em
 Surprise, I'm in the same time
                     Bm
Beneath the same sun
                           Bm  Em
Oh, man, you cut me to size
                   Bm
My little buttercup

[Terceira Parte]
                     
Fine, electrify mine
                
Electrify my golden tooth

Can't look at those eyes

Without sparking some

E|--------------------------------------------|
B|--------------------------------------------|
G|--------------------------------------------|
D|---9----7------------7----------------------|
A|--------------9-----------------------------|
E|--------------7-----------------------------|

[Refrão]

                 Bm     Em
Electrify my heart
                Bm      Em 
Electrify my heart
                Bm      Em
Electrify my heart
                Bm      Em 
Electrify my heart

[Riff]

E|--10--10--10--10---12---12/14---12---10-----|
B|--------------------------------------------|
G|--------------------------------------------|
D|--------------------------------------------|
A|--------------------------------------------|
E|--------------------------------------------|

E|--7--5--10--7---3\2-------------------------|
B|--------------------------------------------|
G|--------------------------------------------|
D|--------------------------------------------|
A|--------------------------------------------|
E|--------------------------------------------|
Composição de Jack Stauber
Colaboração e revisão:
  • adriana buono
  • Thiago Santos
4.199 exibições
    • ½ Tom
    • Am
    • Bbm
    • Bm
    • Cm
    • C#m
    • Dm
    • Ebm
    • Em
    • Fm
    • F#m
    • Gm
    • G#m
  • Adicionar à lista

    0 comentários

    Ver todos os comentários

    Conseguiu tocar?

    3 Tocaram 0 Ainda não

    Grave um vídeo tocando Buttercup e nos envie!

    00:00 / 00:00
    Outros vídeos desta música
    Repetir Qualidade Automático
    Outros vídeos desta música
    00:00 / 00:00
    Automático

    Cifra Club Pro

    Aproveite o Cifra Club com benefícios exclusivos e sem anúncios
    Cifra Club Pro
    Aproveite o Cifra Club com benefícios exclusivos e sem anúncios
    OK