Cifra Club

Aprenda

Freedom At 21

Jack White

Cifra: Principal (violão e guitarra)
Já pensou em usar uma coleção de roupas do Cifra Club? Responda as perguntas abaixo e nos ajude nessa missão! →
tom: A
Verse Part 1
E|--------------------------------|
B|--------------------------------|
G|--------------------------------|
D|--------------------------------|
A|-2--2-5-2--2-0~-----------------|
E|-----------------0~-------------|

Verse Part 2
E|--------------------------------|
B|--------------------------------|
G|--------------------------------|
D|------------------0~------0~----|
A|-2--2-5-2--2----2-------0-------|
E|--------------3-------2---------|

Verse Part 3
E|--------------------------------|
B|--------------------------------|
G|--------------------------------|
D|-----0~------0~-----------------| (2x)
A|---2-------0--------------------|
E|-3-------2----------------------|

Interlude
E|-0~-----------------------x-x-x-|
B|-0~-----------------------x-x-x-|
G|-1~-----------------------x-x-x-|
D|-2~-----------------------x-x-x-|
A|-2~-----------------------x-x-x-|
E|-0~-----------------------x-x-x-|

End
E|-0~-----------------------------|
B|-0~-----------------------------|
G|-1~-----------------------------|
D|-2~-----------------------------|
A|-2~-----------------------------|
E|-0~-----------------------------|

Verse Part 1 (3x)
Verse Part 2 (1x)
Verse Part 1 (3x)
Verse Part 2 (1x)
Verse Part 1 (3x)
Verse Part 2 (1x)
Verse Part 3 (1x)
Interlude (2x)
Verse Part 1 (3x)
Verse Part 2 (1x)
Verse Part 1 (3x)
Verse Part 2 (1x)
Verse Part 1 (3x)
Verse Part 2 (1x)
Verse Part 3 (1x)
Interlude (4x)
Verse Part 1 (3x)
Verse Part 2 (1x)
Verse Part 1 (3x)
Verse Part 2 (1x)
Verse Part 3 (1x)
End (1x)
Composição de Jack White
Colaboração e revisão:
  • Ramon S.F
6.939 exibições
    • ½ Tom
    • A
    • Bb
    • B
    • C
    • Db
    • D
    • Eb
    • E
    • F
    • F#
    • G
    • Ab
  • Adicionar à lista

    0 comentários

    Ver todos os comentários

    Conseguiu tocar?

    9 Tocaram 0 Ainda não

    Grave um vídeo tocando Freedom At 21 e nos envie!

    00:00 / 00:00
    Outros vídeos desta música
    Repetir Qualidade Automático
    Outros vídeos desta música
    00:00 / 00:00
    Automático

    Cifra Club Pro

    Aproveite o Cifra Club com benefícios exclusivos e sem anúncios
    Cifra Club Pro
    Aproveite o Cifra Club com benefícios exclusivos e sem anúncios
    OK