Cifra Club

I'm Shakin'

Jack White

Cifra: Principal (violão e guitarra)
Tom: G
|----------------------------------------------|
|----------------------------------------------|
|----------------------------------------------|
|--------------------------------5----------| x2
|---6-7--7----6-7--7------6-7-------7--------|
|-7---------7-----------7-----------------7--0--|

|-------------------|
|-------------------|
|---------1---------|
|---------2---------|
|---------2---------|
|---------0---------|
When your touching my hand and talk sweet talk, I got a knockin in my knees and a wabble
to my walk. And Im tremlin'

|----------------------------------------------|
|----------------------------------------------|
|----------------------------------------------|
|--------------------------------5----------|
|---6-7--7----6-7--7------6-7-------7--------|
|-7---------7-----------7-----------------7--0--|
Thats right, you got me tremblin

|-------------------|
|-------------------|
|---------1---------|
|---------2---------|
|---------2---------|
|---------0---------|
When you take me in your arms and talk romance, my heart start doin that st.rita dance.
And im ventin'

|----------------------------------------------|
|----------------------------------------------|
|----------------------------------------------|
|--------------------------------5----------|
|---6-7--7----6-7--7------6-7-------7--------|
|-7---------7-----------7-----------------7--0--|

|-----------------------------------|
|---------------------------2-------|
|---------1-----------------2-------|
|---------2-----------------2-------|
|---------2-----------------0-------|
|---------0-------------------------|
Early in the morning time. Late in the middle of the night

|-------------------------------------------------------------|
|---2---------------------------------------------------------|
|---2---------------------------------------------------------|
|---2--------------------------------------5------------------|
|---0--------------------------------------5------------------|
|------------------------------------------3------------------|
Whenever this chill comes over me, I wana hug with all my might, thats right. and Im sweatin'

|----------------------------------------------|
|----------------------------------------------|
|----------------------------------------------|
|--------------------------------5----------|
|---6-7--7----6-7--7------6-7-------7--------|
|-7---------7-----------7-----------------7--0--|

|-----------------------------------------------------|
|---------------------------------------------2-------|
|---------1-----------------------------------2-------|
|---------2-----------------------------------2-------|
|---------2-----------------------------------0-------|
|---------0-------------------------------------------|
A chill in a fever so Ive been told, Makes your head spin around and your feet run cold

|----------------------------------------------|
|----------------------------------------------|
|----------------------------------------------|
|--------------------------------5----------|
|---6-7--7----6-7--7------6-7-------7--------|
|-7---------7-----------7-----------------7--0--|

|-------------------------------------------------------------|
|-----------------------------------------------------2-------|
|---1-------------------------------------------------2-------|
|---2-------------------------------------------------2-------|
|---2-------------------------------------------------0-------|
|---0---------------------------------------------------------|
I feel like I been run right through the mill, And I can't move around and I can't stand
still. Im Bo Diddley

|----------------------------------------------|
|----------------------------------------------|
|----------------------------------------------|
|--------------------------------5----------| x2
|---6-7--7----6-7--7------6-7-------7--------|
|-7---------7-----------7-----------------7--0--|


|-3-0---------3--------------------------------0----|
|-----3-0----------3b-3b-3b-3b-3b-3b-3b-3r-1--------|
|---------2-0--------------------------------2------|
|---------------------------------------------------|
|---------------------------------------------------|
|---------------------------------------------------|

|-5b-5b-5b-5-3---3------3-5b-5b-5b-5b-5b-5b-3-3--5b-5b-5b-5b-5b-5b-5b-3----|
|-------------5------5-------------------------------------------------5-5-|
|--------------------------------------------------------------------------|
|--------------------------------------------------------------------------|
|--------------------------------------------------------------------------|
|--------------------------------------------------------------------------|

|------------------------------------------|
|----------------------------------2-------|
|-----1----------------------------2-------|
|-----2----------------------------2-------|
|-----2----------------------------0-------|
|-----0------------------------------------|
Well Samson was a mighty good man. Strongest in his day

|----------------------------------------------------------------------|
|-----2----------------------------------------------------------------|
|-----2----------------------------------------------------------------|
|-----2---------------------------------------------5------------------|
|-----0---------------------------------------------5------------------|
|---------------------------------------------------3------------------|
 Then along came Delilah and clipped his wig. And it looks like you took me the same old way

|----------------------------------------------|
|----------------------------------------------|
|----------------------------------------------|
|--------------------------------5----------| x2
|---6-7--7----6-7--7------6-7-------7--------|
|-7---------7-----------7-----------------7--0--|

|----------------------------------------------|
|--------------------------------------2-------|
|---------1----------------------------2-------|
|---------2----------------------------2-------|
|---------2----------------------------0-------|
|---------0------------------------------------|
A ship rocks the ship on the sea. The wind blows the leaves in the tree

|--------------------------------------------------------------------------|
|----------2---------------------------------------------------------------|
|----------2---------------------------------------------------------------|
|----------2---------------------------------------------5-----------------|
|----------0---------------------------------------------5-----------------|
|--------------------------------------------------------3-----------------|
And I'm a nervous wreck and I'm all shook up, And that's what you're doin' to me right
now. And I'm jumpin'

|----------------------------------------------|
|----------------------------------------------|
|----------------------------------------------|
|--------------------------------5----------| x2
|---6-7--7----6-7--7------6-7-------7--------|
|-7---------7-----------7-----------------7--0--|

|--------------|
|--------------|
|--------------|
|-----6--7-------|
|-7------------|
|--------------|

Obs: O Riff Pricipal também pode ser feito assim. Toque como preferir.
|----------------------------------------------|
|----------------------------------------------|
|----------------------------------------------|
|--------------------------------5----------|
|---5-7--7----5-7--7------5-7--------7--------|
|-7---------7-----------7-----------------7--0--|
exibições 2.879
Acordes para:
    Composição: Rudolph Toombs Colaboração e revisão:
    • Joaquim Toledo

    0 comentários

    mostrar mais comentários

    Conseguiu tocar?

    4 tocaram 0 ainda não

    Grave um vídeo tocando I'm Shakin' e mande pra gente!

    00:00 / 00:00
    outros vídeos desta música
    repetir qualidade Automático
    Outros vídeos desta música
    00:00 / 00:00
    Automático
    OK