Cifra Club

Aprenda

Lazaretto

Jack White

Tab de baixo: Principal
Quer fazer aulas de música com a gente? Responda essas perguntas
e nos ajude nesse projeto! →
G|----------------------------------|
D|----4--2------4-2-----------4--2--|
A|----------2-4-----4---------------| 
E|-2------------------0---h2--------|

G|----------------------------------------|
D|----------------------------------------|
A|-------------------------4h5p4h5p4h5p4h5| 
E|5-5-5-5-5-5-5-5-4-4-4-4-4---------------|

G|----------------------------------|
D|----4--2------4-2-----------4--2--|
A|----------2-4-----4---------------|
E|-2------------------0---h2--------|

G|----------------------------------------|
D|----------------------------------------|
A|-------------------------4h5p4h5p4h5p4h5| 
E|5-5-5-5-5-5-5-5-4-4-4-4-4---------------|

G|----------------------------------|
D|----4--2------4-2-----------4--2--|
A|----------2-4-----4---------------| 
E|-2------------------0---h2--------|

G|----------------------------------------|
D|----------------------------------------|
A|-------------------------4h5p4h5p4h5p4h5| 
E|5-5-5-5-5-5-5-5-4-4-4-4-4---------------|

G|----------------------------------------|
D|----------------------------------------|
A|----------------------------------------|
E|2--2--2--2--2--2--2--2--2--2--2--2--2--2|

G|----------------------------------------|
D|----------------------------------------|
A|-------------------------4h5p4h5p4h5p4h5| 
E|5---------------4-----------------------|

G|----------------------------------|
D|----4--2------4-2-----------4--2--|
A|----------2-4-----4---------------| 
E|-2------------------0---h2--------|

G|-------------------------|---------------|----|
D|-------------------------|---------------|----|
A|-------------------------|4h5p4h5p4h5p4h5|----|
E|5-5-5-5-5-5-5-5-4-4-4-4-4|---------------|2---|
Composição de Jack White
Colaboração e revisão:
  • Élison Duarte
19 exibições

0 comentários

Ver todos os comentários

Conseguiu tocar?

0 Tocaram 0 Ainda não

Grave um vídeo tocando Lazaretto e nos envie!

00:00 / 00:00
Outros vídeos desta música
Repetir Qualidade Automático
Outros vídeos desta música
00:00 / 00:00
Automático

Cifra Club Pro

Aproveite o Cifra Club com benefícios exclusivos e sem anúncios
Cifra Club Pro
Aproveite o Cifra Club com benefícios exclusivos e sem anúncios
OK