Cifra Club

Aprenda

Respect Commander

Jack White

Cifra: Principal (violão e guitarra)
Já pensou em usar uma coleção de roupas do Cifra Club? Responda as perguntas abaixo e nos ajude nessa missão! →
tom: G
[Part 1 - Instrumental] 

E|----------------------|----------------------|
B|----------------------|----------------------|
G|----------------------|----------------------|
D|--2-------------------|--2-------------------| x2
A|--2-------------------|--2-------------------| 
E|--0-----/5--3~~~------|--0-----5/7~~~--------|

N.C.
Let's go back to our song

E|----------------------|----------------------|
B|----------------------|----------------------|
G|----------------------|---------12~~~--------|
D|----------------------|----------------------| x12
A|--2-2-2---------------|--2-2-2---------------|
E|--0-0-0-2/12----------|--0-0-0---------------|
         (slow slide up)

Organ:
E|----------------------|----------------------|
B|--3----2----1----0----|--3----2----1----0----|
G|--0----0----0----0----|--0----0----0----0----|
D|--2----2----2----2----|--2----2----2----2----| x2
A|--2----2----2----2----|--2----2----2----2----|
E|----------------------|----------------------|

Bass:
E|----------------------|----------------------|
B|----------------------|----------------------|
G|----------------------|----------------------|
D|----------------------|----------------------| x4
A|----------------------|----------------------| 
E|--0-0-0-3~~-0-0-0-7~~-|-0-0-0-3b5r3--0-0-0-7~|


[Part 2]

E|----------------------------------------------------|----------------------------------------------------|
B|----------------------------------------15-14---15--|----------------------------------------------------|
G|-pb16r14-12~~~--------------------------------------|-pb16r14-12~~~--------------------------------------|
D|----------------------------------------------------|----------------------------------------------------|
A|----------------------------------------------------|----------------------------------------------------|
E|----------------------------------------------------|----------------------------------------------------|
                          She commands my respect                         she commands my respect

E|----------------------------------------------------|----------------------------------------------------|
B|-15-15---12-----------------------------------------|----------------------------------------------------|
G|---------14b16---pb16r14-12~~~----------------------|--pb16r14p12----------------------------------------|
D|----------------------------------------------------|-------------14-14----------------------------------|
A|----------------------------------------------------|----------------------------------------------------|
E|----------------------------------------------------|----------------------------------------------------|
                            And I can't recollect                         a better time in my life

E|----------------------------------------------------|--12------------------------------------------------|
B|--12-----------------------------12-15-12~~~--------|--15b17--------------------12-15-12~~~--------------|
G|--14b16---------------------------------------------|----------------------------------------------------|
D|----------------------------------------------------|----------------------------------------------------|
A|----------------------------------------------------|----------------------------------------------------|
E|----------------------------------------------------|----------------------------------------------------|
                           She has all my respect                         she has all my respect

E|----------------------------------------------------|-----------15---------------------------------------|
B|--17~~~--------------------------12-15-12\----------|-----15b17----pb17r15-12~~~-------------------------|
G|----------------------------------------------------|----------------------------------------------------|
D|----------------------------------------------------|----------------------------------------------------|
A|----------------------------------------------------|----------------------------------------------------|
E|----------------------------------------------------|----------------------------------------------------|
                             And I cannot protect        my heart from her command

E|-15-------------------------------------------------|
B|----15----------------------------------------------|
G|-------16-14-14b16-pb16r14-16~~~-14b16r14-12----12~~|
D|---------------------------------------------10-----|
A|----------------------------------------------------|
E|----------------------------------------------------|

E|---------------------------------------------------------------------------------------------------------|
B|---------------------------------------------------------------------------------------------------------|
G|---------------------------------------------------------------------------------------------------------|
D|---------------------------------------------------------------------------------------------------------|
A|--------2---------2---------2---------------------------------------2---------2---------2----------------|
E|--------0---------0---------0---------3---------3---------3---------0---------0---------0---------7~~~---|
And she's stringin' me       along, the bells are ringing   strong,   so    I   can't     detect       it

E|---------------------------------------------------------------------------------------------------------|
B|---------------------------------------------------------------------------------------------------------|
G|---------------------------------------------------------------------------------------------------------|
D|---------------------------------------------------------------------------------------------------------|
A|--------2---------2---------2---------------------------------------2---------2---------2----------------|
E|--------0---------0---------0---------3---------3---------3---------0---------0---------0---------7~~~---|
    She's comin'    up      behind   me in  the   mornin',  lovin'    when   I  least     sus-     -pect it


E|---------------------------------------------------------------------------------------------------------|
B|---------------------------------------------------------------------------------------------------------|
G|---------------------------------------------------------------------------------------------------------|
D|---------------------------------------------------------------------------------------------------------|
A|--------2---------2---------2---------------------------------------2---------2---------2----------------|
E|--------0---------0---------0---------3---------3~~~----------------0---------0---------0---------7~~~---|
          Every     single    thing    about this situation           says   I  can't     be        wrong

E|---------------------------------------------------------------------------------------------------------|
B|---------------------------------------------------------------------------------------------------------|
G|---------------------------------------------------------------------------------------------------------|
D|---------------------------------------------------------------------------------------------------------|
A|--------2---------2---------2---------------------------------------2---------2---------2----------------|
E|--------0---------0---------0---------3---------3~~~----------------0---------0---------0---------7~~~---|
      And every     time she  gets her  satis-   -faction,  I  want   her   to  control   me    all   night


[Instrumental Outro]

E|---19-------19-------19----19-------------19----19-------------19----19-------------19----19-------------|
B|---22b24----22b24----22b24-22b24-pb24r22--22b24-22b24-pb24r22--22b24-22b24-pb24r22--22b24-22b24-pb24r22--|
G|---------------------------------------------------------------------------------------------------------|
D|---------------------------------------------------------------------------------------------------------|
A|---------------------------------------------------------------------------------------------------------|
E|---------------------------------------------------------------------------------------------------------|
  ...long

E|-------19-------------------------------------------|----------------------------------------------------|
B|-------22b24b24b24b24b24b24b24b24b24b24r22----------|----22b24-22-22----22-------------------------------|
G|---21--------------------------------------24~~~----|----------------24----24-21b22r21\------------------|
D|----------------------------------------------------|----------------------------------------------------|
A|----------------------------------------------------|----------------------------------------------------|
E|----------------------------------------------------|----------------------------------------------------|

E|----------------------------------------------------|----------------------------------------------------|
B|------15------------------------15------------------|------15--------------------------------------------|
G|--/16----16-14-12~~~--------/16----16-14~~~---------|--/16----16-14/16\14-12~~~-----14b16r14-12----------|
D|----------------------------------------------------|-------------------------------------------14~~~----|
A|----------------------------------------------------|----------------------------------------------------|
E|----------------------------------------------------|----------------------------------------------------|

E|----------------------------------------------------|----------------15-17-17b19r17----/22~~~------------|
B|------15------------------------15------------------|------15----/17----------------20-------------------|
G|--/16----16-14/16\14-12~~~--/16----16-14~~~---------|--/16----16-----------------------------------------|
D|----------------------------------------------------|----------------------------------------------------|
A|----------------------------------------------------|----------------------------------------22~~~-------|
E|----------------------------------------------------|----------------------------------------------------|

E|--22/24---27-24-27-24-27-24-30-27--------29-27-29-27--------29-27-29-27--------29-27-29-27---------------|
B|----------------------------------29-27--------------29-27--------------29-27--------------29-27---------|
G|---------------------------------------------------------------------------------------------------------|
D|---------------------------------------------------------------------------------------------------------|
A|---------------------------------------------------------------------------------------------------------|
E|---------------------------------------------------------------------------------------------------------|

E|--29p28p27-----------29p28p27--29p28p27---------------29p28p27---29p28p27--------------------------------|
B|-----------29p28p27----------------------29p28p27--------------------------29p28p27--29p28p27------------|
G|---------------------------------------------------------------------------------------------------------|
D|---------------------------------------------------------------------------------------------------------|
A|---------------------------------------------------------------------------------------------------------|
E|---------------------------------------------------------------------------------------------------------|

E|---------------------------------------------------------------------------------------------------------|
B|---------------------------------------------------------------------------------------------------------|
G|--14p13p12-----------14p13p12--14p13p12--------------14p13p12--14p13p12----12-14-12----------------------|
D|-----------14p13p12----------------------14p13p12-----------------------14------------2~~~---------------|
A|--------------------------------------------------------------------------------------2~~~---------------|
E|--------------------------------------------------------------------------------------0------------------|

E|----------------------|----------------------|
B|----------------------|----------------------|
G|----------------------|----------------------|
D|--2-------------------|--2-------------------| x2
A|--2-------------------|--2-------------------| 
E|--0-----/5--3~~~------|--0-----5/7~~~--------|
Composição de Jack White
Colaboração e revisão:
  • Leonardo Silva
26 exibições
    • ½ Tom
    • A
    • Bb
    • B
    • C
    • Db
    • D
    • Eb
    • E
    • F
    • F#
    • G
    • Ab
  • Adicionar à lista

    0 comentários

    Ver todos os comentários

    Conseguiu tocar?

    0 Tocaram 0 Ainda não

    Grave um vídeo tocando Respect Commander e nos envie!

    00:00 / 00:00
    Outros vídeos desta música
    Repetir Qualidade Automático
    Outros vídeos desta música
    00:00 / 00:00
    Automático

    Cifra Club Pro

    Aproveite o Cifra Club com benefícios exclusivos e sem anúncios
    Cifra Club Pro
    Aproveite o Cifra Club com benefícios exclusivos e sem anúncios
    OK