Cifra Club

Little Blue

Jacob Collier

Cifra: Principal (violão e guitarra)
Selo Cifra Club: esta cifra foi revisada para atender aos critérios oficiais da nossa Equipe de Qualidade.
tom: D
[Intro]

E|----------------------------------------------------|
B|----------------------------------------------------|
G|--(7)---(7)---(7)---(7)---(7)---(7)---(7)---(7)-----|
D|----------------------------------------------------|
A|----------------------------------------------------|
E|----------------------------------------------------|
(Harmonicos)

       G9          Bm7
Little blue, be my shelter
      Em7     A7(4)  D2
Be my cradle, be my womb
       G9          Bm7
Be my boat, be my river
         Em7     A7(4)  Riff 1
Be the stillness of the Moon

[Riff 1]

E|----------------------------------------------------|
B|----------------------------------------------------|
G|----------------------------------------------------|
D|-----------------0~~--------------------------------|
A|-------0h2/4p0--------------------------------------|
E|--0h2-----------------------------------------------|

       G9          Bm7
If I could, I'd go with you
       Em7   A7(4)  Riff 2
To a place I never knew
        G9               Bm7
In your eyes, so dark and open
         Em7         A7(4)            D2
There’s a light that leads me back to you

[Riff 2]

E|------------3p2p0-----------------------------------|
B|---------3------------------------------------------|
G|------2-----------2p0-------------------------------|
D|---0------------------2/4~~-------------------------|
A|----------------------------------------------------|
E|----------------------------------------------------|

             Bm7    F#m7  G9
Cause you're not so far away
  D/F#      Am7
I hear you say
        G/B        Em/B  A4  C7M  Bm7
You'll never walk alone

 D2                     Em7
Don’t be afraid of the dark
         A4     A              Em7  D/F#  G
In your heart,   you're gonna find   a   way
   D2                     Em7
To carry the weight of the world
               A4     A
On your shoulders
             Em7    D/F#     A4      D2
You're gonna find    a        way    home

[Ponte]

E|-1h3---5--------3--------3---------2--------0------2~---|
B|-----------3--------1---------1--------0------3----3~---|
G|---------3--------2---------0--------0-------------2~---|
D|-------3--------3----------------------------------0~---|
A|-------------------------3------------------------------|
E|-----------------------------------3--------------------|

       G9          Bm7
Little blue, be my anchor
      Em7        A7(4)   D2
Be my light, my compass star
      G9              Bm7
Be my darkness, be my danger
        Em7      A7(4)  D2
Be the strings of my guitar
       G9          Bm7
Little blue, how I love you
          Em7        A7(4)     D2
Something strong and something true
        G9                Bm7   Am7  D7
In your arms, so dear and gentle
          Em7       A7(4)             D2
There's a home that leads me back to you

             Bm7    F#m7  G#m7
Cause you're not so far away
  D#m7     Emaj9
I hear you say
       Bbm7       Ab/C   Dd  Eb  Bb  CM7/G
You'll never walk alone

 D2                     Em7
Don’t be afraid of the dark
         A4     A              Em7  D/F#  G
In your heart,   you're gonna find   a   way
   D2                     Em7
To carry the weight of the world
               A4     A
On your shoulders
             Em7    D/F#     A4
You're gonna find    a        way
 D2                     Em7
Don’t be afraid of the dark
         A4     A              Em7  D/F#  G
In your heart,   you're gonna find   a   way
   D2                     Em7
To carry the weight of the world
               A4     A
On your shoulders
             Em7    D/F#     A4         D2
You're gonna find    a        way    home

(Gonna find a way home)

(Gonna find your way home)

(In your eyes)

(Gonna find a way home)

(In your eyes)

(On your shoulders)

[Final]

E|-1h3---5--------3--------3---------2--------0------5~---|
B|-----------3--------1---------1--------0------3----3~---|
G|---------3--------2---------0--------0-------------2~---|
D|-------3--------3----------------------------------0~---|
A|-------------------------3------------------------------|
E|-----------------------------------3--------------------|
00:00 / 00:00
Outros vídeos desta música
Repetir
Outros vídeos desta música
792 exibições
    • ½ Tom
    • A
    • Bb
    • B
    • C
    • Db
    • D
    • Eb
    • E
    • F
    • F#
    • G
    • Ab
  • Adicionar à lista

Afinação da cifra

Afinador online

    0 comentários

    Ver todos os comentários

    Entre para o Cifra Club PRO

    Tenha acesso a benefícios exclusivos no App e no Site

    • Chega de anúncios

    • Mais recursos no app do Afinador

    • Atendimento Prioritário

    • Aumente seu limite de lista

    • Ajude a produzir mais conteúdo

    00:00 / 00:00

    Cifra Club Pro

    Aproveite o Cifra Club com benefícios exclusivos e sem anúncios
    Cifra Club Pro
    Aproveite o Cifra Club com benefícios exclusivos e sem anúncios
    OK