Cifra Club

Eucalipto

Jads e Jadson

Cifra: Principal
exibições 83.386
Tom: B
Intro: B  F#  B  F#  B

Solo Introdução:


E|---------------------------------------------------------------------------|
B|---------------------------------------------------------------------------|
G|---------------------------------------------------------------------------|
D|--------4/6--4-------------------------------------------------------------|
A|---2------------6-----6--7---6--7--8--9------------------------------------|
E|-------------------7-------------------------------------------------------|


E|---------------------------------------------------------------------------|
B|---------------------------------------------------------------------------|
G|---------------------------------------------------------------------------|
D|--------4/6--4--6--4-------------------------------------------------------|
A|---2-------------------6-----6--7---6--7--8--9-----------------------------|
E|--------------------------7------------------------------------------------|


B                                      F#
O trem ta feio o trem ta ruim pro meu lado
                                              B
Ando sem um tostão furado e a mulher quer me largar
B                                    F#
Já estou pensando em ignorar a minha idade
                                         B
Entra até na faculdade,e começar a trabalhar

B                                       F#
Um jeito fácil de resolver os meus problemas
                                                B
Era ganhar na mega sena mais estou cansado de jogar
B                              F#
Vou dar um jeito procurar a solução
                                          B
Pra ganhar seu coração e você eu conquistar

Refrão:
B
Eu vou plantar uns eucalipto que é pra vê se fico rico,
                 F#
E você se apaixonar
                             E                     F#
Eu vou fazer um planejamento pensando no investimento
                       B
Pra mais tarde nos casar

Solo do Meio:


E|---------------------------------------------------------------------------|
B|---------------------------------------------------------------------------|
G|---------------------------------------------------------------------------|
D|--------4/6--4-------------------------------------------------------------|
A|---2------------6-----6--7---6--7--8--9------------------------------------|
E|-------------------7-------------------------------------------------------|


E|---------------------------------------------------------------------------|
B|---------------------------------------------------------------------------|
G|---------------------------------------------------------------------------|
D|--------4/6--4--6--4-------------------------------------------------------|
A|---2-------------------6-----6--7---6--7--8--9-----------------------------|
E|--------------------------7------------------------------------------------|

B                                 F#
Fiquei sabendo que demoro uns 5 anos
                                    B
E com esse tempo todo comecei desanimar
B                                       F#
Dali a pouco você já não vai estar tão nova
                                             B
E casar com mulher velha minha mãe não vai gostar
B                                 F#
O meu problema não vai ser o seus 40
                                        B
Mais vai ser a mulherada querendo me agarrar

B
Quando eu cortar os eucaliptos e perceber que eu fiquei rico
                    F#
Essa história vai mudar
                                      E
Vai me subir a ambição vou querer só mulherão
  F#            B
E você eu vou largar
Acordes para:

    0 comentários

      mostrar mais comentários

      Conseguiu tocar?

      10tocaram0ainda não

      Grave um vídeo tocando Eucalipto e mande pra gente!

      00:00 / 00:00
      outros vídeos desta música
      repetirqualidadeautomática
      Outro vídeos desta música
        00:00 / 00:00
        automática
        OK