Cifra Club

Aprenda

Se Toca Essa Moda

Jads e Jadson

Cifra: Principal (violão e guitarra)
Tom: A (forma dos acordes no tom de B) Afinação: D G C F A D
[Intro] B  F#  E  F#

E|----------------------------------------------------|
B|-----2/4-2-2--------2~------------------------------|
G|--------------4-4-3---------3-1-1-------1-3-1-------|
D|-4-4--------------------4-4-------4-4-4-------4-2~--|
A|----------------------------------------------------|
E|----------------------------------------------------|

E|---------------------------|
B|---------4/5-5-5-5-4-2-----|
G|-----3h4---------------4~--|
D|-2h4-----------------------|
A|---------------------------|
E|---------------------------|

 B                                   G#m
Hoje, só hoje não penso em nada, só penso em mim
                             E
Sai decidido que não vou pensar nela
            C#m        F#
Mas que ironia, já to falando dela
 B                                 G#m
Hoje, só hoje eu saio sozinho pra variar
                               E
E vou ficar no meu canto aqui nesse bar
        C#m               F#
Pra me curar, juro não ligar pra ela

          E                                       F#
Mas de repente um disgramado sofredor da mesa ao lado
   E                                  B                           F#
Pediu uma canção, que é "das mió" do mundo, que é pra acabar com tudo

 B                        E   F    F#
Se toca essa moda, o coração balança
                               E
De copo cheio ainda tenho esperança
                                         B           F#
Fecho os olhos pra esquecer, mas lembro dela, penso nela
 B                       E  F  F#
Se toca essa moda ai eu não aguento
                              E
E ligo pra ela, quebro o juramento
                                 B
Mas prometo que amanhã eu te esqueço
        F#         B
Oh meu Deus eu prometo

[Solo] B  F#  E  F#

E|----------------------------------------------------|
B|-----2/4-2-2--------2~------------------------------|
G|--------------4-4-3---------3-1-1-------1-3-1-------|
D|-4-4--------------------4-4-------4-4-4-------4-2~--|
A|----------------------------------------------------|
E|----------------------------------------------------|

E|---------------------------|
B|---------4/5-5-5-5-4-2-----|
G|-----3h4---------------4~--|
D|-2h4-----------------------|
A|---------------------------|
E|---------------------------|

          E                                       F#
Mas de repente um disgramado sofredor da mesa ao lado
   E                                  B                           F#
Pediu uma canção, que é "das mió" do mundo, que é pra acabar com tudo

 B                        E   F    F#
Se toca essa moda, o coração balança
                               E
De copo cheio ainda tenho esperança
                                         B           F#
Fecho os olhos pra esquecer, mas lembro dela, penso nela
 B                       E  F  F#
Se toca essa moda ai eu não aguento
                              E
E ligo pra ela, quebro o juramento
                                 B
Mas prometo que amanhã eu te esqueço
        F#
Oh meu Deus

 B                        E   F    F#
Se toca essa moda, o coração balança
                               E
De copo cheio ainda tenho esperança
                                         B           F#
Fecho os olhos pra esquecer, mas lembro dela, penso nela
 B                       E  F  F#
Se toca essa moda ai eu não aguento
                              E
E ligo pra ela, quebro o juramento
                                 B
Mas prometo que amanhã eu te esqueço
        F#         B
Oh meu Deus eu prometo
Composição de Douglas Mello / Flávinho Tinto / Nando Marx
115.751 exibições
    • ½ Tom
    • A
    • Bb
    • B
    • C
    • Db
    • D
    • Eb
    • E
    • F
    • F#
    • G
    • Ab
  • Adicionar à lista

    0 comentários

    Mostrar mais comentários

    Conseguiu tocar?

    13 Tocaram 4 Ainda não

    Grave um vídeo tocando Se Toca Essa Moda e mande pra gente!

    00:00 / 00:00
    outros vídeos desta música
    repetir qualidade Automático
    Outros vídeos desta música
    00:00 / 00:00
    Automático

    Cifra Club Pro

    Aproveite o Cifra Club com benefícios exclusivos e sem anúncios
    Cifra Club Pro
    Aproveite o Cifra Club com benefícios exclusivos e sem anúncios
    OK