Cifra Club

Así Como Tú

Jaguares

Cifra: Principal (violão e guitarra)
tom: D
Intro: Bm

Verso 1:

Bm                  F#7
Hay un alma q esta herida
Bm                   F#7
q se derrama en cada vida
Bm                       F#7
q se contempla en los espejos de la carne
Bm                   F#7
y no se dobla ni se rinde

Coro:

         G   A           F#7
Asi como tú amor q das la vida
         G   A           F#7
asi como tú amor q das la vida 
         G     A  Bm
asi como tú 
         G     A  Bm
asi como tú

Verso 2:

Bm                   F#7
Hay un alma q fue preñada
Bm                       F#7
sufrió el engaño de tus sueños
Bm                        F#7
anda buscando donde esconder su mortal herida
Bm                        F#7
y está esperando verte hincado y desangrando

Coro:

         G    A           F#7
Asi como tú amor que quitas la vida
         G     A           F#7
asi como tú amor que quitas la vida 
         G     A  Bm
asi como tú
         G     A  Bm
asi como tú 

Verso 3:

F#m                       Bm
Y es tan fácil que te hagan daño
D                        C
ni en el último suspiro te dejas querer

Amor roto!
E|-------------------------------|
B|-------------------------------|
G|-------------------------------|
D|-------------------------------|
A|----------------1--2-----------|
E|--------3--5-------------------|

Solo:

E|----------------------------------------|
B|----------------------------------------|
G|---------11--11/12/11---11/12/11--11----|
D|----9-----------------------------------|
A|---------9----9/10/9-----9/10/9---9-----|
E|----7-----------------------------------|

E|--------------------------------------------|
B|---------------11--12---/15-----------------|
G|-11--12-13-14-----------------/11--11--11-9-|
D|----------------8--9----/12-----------------|
A|--9--10-11-12-----------------/9----9--9--7-|
E|--------------------------------------------|

E|---------------------------------2-2-2--7-7-|
B|------------------------8-8-8-8-------------|
G|-7--6/7\6--6--------7~9---------------------|
D|----------------7~9-------------------------|
A|-5--4/5\4--4--------------------------------|
E|--------------------------------------------|

E|-6~7-8-9--10---7----------------------------|
B|-----------------8-8-8-7--------------------|
G|-------------------------/11-11-11--9--4--6-|
D|--------------------------------------------|
A|--------------------------/9--9--9--7--2--4-|
E|--------------------------------------------|

E|--------------------------------------------|
B|--------------------------------------------|
G|-7--9--11--12--11/12\11-11-------7-9~7------|
D|-----------------------------7-9-------9-7-9|
A|-5--7---9--10---9/10\9---9------------------|
E|--------------------------------------------|

Salida:

         G          A           F#7
Asi como tú amor que das la vida
         G          A           F#7
asi como tú amor que quitas la vida  
 G          A           F#7
Asi como tú amor que das la vida
         G          A           F#7
asi como tú amor que quitas la vida  
         G     A  Bm
asi como tú 
         G     A  Bm
asi como tú 
         G     A  Bm
asi como tú
         G     A  Bm
asi como tú

E|-------7~----9-10-9-10-9--9~----------------|
B|------7~------------------------------------|
G|-----7~-------------------------------------|
D|----9~--------------------------------------|
A|---9~---------------------------------------|
E|--7~----------------------------------------|
Composição de Saúl Hernández
Colaboração e revisão:
  • Johan Beltrán
738 exibições
    • ½ Tom
    • A
    • Bb
    • B
    • C
    • Db
    • D
    • Eb
    • E
    • F
    • F#
    • G
    • Ab
  • Adicionar à lista

    0 comentários

    Ver todos os comentários

    Conseguiu tocar?

    0 Tocaram 0 Ainda não

    Grave um vídeo tocando Así Como Tú e nos envie!

    00:00 / 00:00
    Outros vídeos desta música
    Repetir Qualidade Automático
    Outros vídeos desta música
    00:00 / 00:00
    Automático

    Cifra Club Pro

    Aproveite o Cifra Club com benefícios exclusivos e sem anúncios
    Cifra Club Pro
    Aproveite o Cifra Club com benefícios exclusivos e sem anúncios
    OK