Enviar cifraEntrar

You're Beautiful

James Blunt

Cifra: Principal
exibições 1.037.812
Tom: D#
(intro) Eb Bb Cm Ab

(solo)

E|---------------------------------
B|----4-3-4----4-3-4--6--4-3-4-----
G|--0--------0-----------------0-1-
D|---------------------------------
A|---------------------------------
E|---------------------------------


(riff) (na intro junto do solo)

         Eb              Bb                 Cm             Ab
E|----------------|----------------|----------------|---------------|
B|----------------|----------------|----------------|---------------|
G|----------------|----------------|----------------|---------------|
D|-5-5-3-5--3-5-0-|-0--------------|-5-5-3-5--3-5---|-6-6-5-6-------|
A|----------------|---3-5-3-5------|----------------|---------------|
E|----------------|----------------|----------------|---------------|


My life is brilliant...

(repete intro)

Eb
 My life is brilliant
Bb
 My love is pure
Cm
 I saw an angel
Ab
 Of that I'm sure

(riff)
    Eb
She smiled at me on the subway
        Bb
She was with another man
    Cm
But I won't lose no sleep on that
       Ab
'Cause I've got a plan


D|--3--5--1--


(refrão)
Ab             Bb
 You're beautiful
 Eb
 You're beautiful   
D|--3--5--1--

 Ab             Bb         Eb
 You're beautiful, it's true   
D|--3--5--1--

  Ab        Bb
I saw your face


D|--5----3----1--

     Eb   Bb   Cm
In a crowded place
      Ab          Bb       Cm
And I don't know what to do
            Ab     Bb       Eb
'Cause I'll never be with you

(solo)

E|-------------------------
B|----4-3-4-4-3-4-6--4-3-4-
G|--0---0----0---------1---
D|-------------------------
A|-------------------------
E|-------------------------


(riff) (na intro junto do solo)

         Eb              Bb                 Cm             Ab
E|----------------|----------------|----------------|---------------|
B|----------------|----------------|----------------|---------------|
G|----------------|----------------|----------------|---------------|
D|-5-5-3-5--3-5-0-|-0--------------|-5-5-3-5--3-5---|-6-6-5-6-------|
A|----------------|---3-5-3-5------|----------------|---------------|
E|----------------|----------------|----------------|---------------|


         Eb
Yes, she caught my eye
      Bb
As we walked on by
          Cm
She could see from my face that I was
Ab
flying high

(riff - intro)
    Eb                       Bb
And I don't think that I'll see her again
    Cm                           Ab
But we shared a moment that will last to the end


D|--3--5--1--


(refrão)
Ab             Bb
 You're beautiful
 Eb
 You're beautiful   
D|--3--5--1--

 Ab             Bb         Eb
 You're beautiful, it's true   
D|--3--5--1--

  Ab        Bb
I saw your face


D|--5----3----1--

     Eb   Bb   Cm
In a crowded place
      Ab          Bb       Cm
And I don't know what to do
            Ab     Bb       Eb
'Cause I'll never be with you


D|--3--5--1--


Ab     Cm      Ab     Cm      Ab     Cm      Bb
La la la la, la la la la, la la la la, la

Ab             Bb
 You're beautiful
 Eb
 You're beautiful   
D|--3--5--1--

 Ab             Bb         Eb
 You're beautiful, it's true   
D|--3--5--1--

      Ab          Bb
There must be an angel


    D|--5--------3----1--

       Eb        Bb   Cm
With a smile on her face
                                              
D|--5----3----1--

         Ab                        Bb             Eb   Bb   Cm
When she thought up that I should be with you
         Ab       Bb        Cm
But it's time to face the truth
        Ab    Bb       Eb
I will never be with you
  • 1
  • 2
  • 3
  • 4
  • 5
  • 6
  • 7
  • 8
  • 9
  • 10
  • 11
  • 12

    0 comentários

      mostrar mais comentários

      Conseguiu tocar?

      84tocaram1ainda não

      Grave um vídeo tocando You're Beautiful e mande pra gente!

      00:00 / 00:00
      outros vídeos desta música
      repetirqualidadeautomática
      • automática
      Outro vídeos desta música
        00:00 / 00:00
        automática
        • automática
        fecharplay/pause subir/descer velocidade
          acordes
          fechar
          OK
          Feedback