Cifra Club

Deus É Maior

Jamily

Cifra: Principal
exibições 185.288
Tom: G
Intro: D#  F  G  G  Am  G/B  G  D#  F/D  C#  D#/C  F9  D  G4  G  G4  G

  G                               D/F#
O Deus a quem eu sirvo,  não é um Deus com "d" pequeno
            Em     Em/D                  C     G/B
Ele é tão grande,                Ele é maior
     Am                D         B                 Em
É maior que o meu problema, é maior que o meu dilema
   Am              Am/G        D/F#
É maior do que eu possa imaginar

  G                          D/F#
O Deus a quem eu sirvo,ELE é um Deus de maravilhas.
                 Em     Em/D                     C     G/B
Faz da dor um sorriso,            porque ele é maior
         Am                      D               B            Em
Pega a pessoa que não tem mais jeito, põe uma medalha no seu peito.
Am          D      G     (D)
Porque Deus é maior

                     G                                  D/F#      Em
Ele é o Deus do impossível, Ele vira pelo avesso essa situa - ção.
                                 Em/D      C                 Am                F     (D)
Pega a pessoa fracassada e faz virar patrão, Ele tira o cativeiro e te faz vencer.
                      Em                                      Em/D      C
Ele é o Deus do impossível, o homem faz a reunião, mas ele é quem decide,
                                 G/B      Am
Ele abre e ninguém fecha ninguém te proíbe,
                  D         (*)
Porque ele tem a chave do poder.

Solo: D#  F  G  G  Am  G/B  G  D#  F/D  C#  D#/C  F9  D  G4  G  G4  G
Solo:
(1:39 / 2:06)
E|----------------------------------------------------------------------------------|
B|-----------------8-10--10b-10b-8-10~~----------10-12b-12/15-13-12-12b~12~12b~12---|
G|-10/12---------8-----------------------------10-----------------------------------|
D|-------------8-----------------------------10-------------------------------------|
A|-------6--10-------------------------8--12----------------------------------------|
E|----------------------------------------------------------------------------------|

E|----------------------------------------------------------|
B|-----------------------------------8-10-10b-10b-8-10~~----|
G|-12--------12--12----------------8------------------------|
D|---12/10/9---9---10-9-8--------8--------------------------|
A|-------------------------6--10----------------------------|
E|----------------------------------------------------------|

E|------------------------------------------------------------------------------|
B|------------------------------------------------------------17-18/20----------|
G|---------------------------------------------------16-17-19-------------------|
D|-----------12-13-15--------13-15-17--------15-17-19---------------------------|
A|---12-13-15--------13-15-17--------15-17-18-----------------------------------|
E|-15---------------------------------------------------------------------------|

E|-------15---17------20b-20b~~------------------|
B|-12/15---15---15-------------------------------|
G|-----------------------------------------------|
D|-----------------------------------------------|
A|-----------------------------------------------|
E|-----------------------------------------------|

   G
O Deus a quem eu sirvo......
Acordes para:
    Colaboração e revisão:

    0 comentários

      mostrar mais comentários

      Conseguiu tocar?

      17tocaram0ainda não

      Grave um vídeo tocando Deus É Maior e mande pra gente!

      00:00 / 00:00
      outros vídeos desta música
      repetirqualidadeautomática
      Outro vídeos desta música
        00:00 / 00:00
        automática
        OK