Cifra Club

Aprenda

Little L

Jamiroquai

Cifra: Principal (violão e guitarra)
tom: A
[Intro]

E|------10-10x10x-10---10-10x10x------|
B|------8--8-x8-x-8----8--8-x10x------|
G|------8--8-x8-x-8----8--8-x10x------|
D|------------------------------------|
A|------------------------------------|
E|------------------------------------|

E|-10-10x10x-10---10-10x10x------|
B|-8--8-x8-x-8----8--8-x10x------|
G|-8--8-x8-x-8----8--8-x10x------|
D|-------------------------------|
A|-------------------------------|
E|-------------------------------|

[Primeira Parte]

E|-------------------------------------------11/13---|
B|-------------------------------------------11-11---|
G|-------------------------------------------11-11---|
D|---------------------------------------------------|
A|---------------------------------------------------|
E|---------------------------------------------------|

[Refrão]

E|-------------------------------------------11/13---|
B|-------------------------------------------11-11---|
G|--------6-8---------------------6-8--10-8--11-11---|
D|------/8----------------------/8---/8--------------|
A|---------------------------------------------------|
E|---------------------------------------------------|

E|---------------------------------------------------|
B|---------------------------------------------------|
G|--------6-8---------------------6-8--10-8--10-8----|
D|------/8----------------------/8---/8----/8--------|
A|---------------------------------------------------|
E|---------------------------------------------------|

E|-------------------------------------------11/13---|
B|-------------------------------------------11-11---|
G|-------------------------------------------11-11---|
D|---------------------------------------------------|
A|---------------------------------------------------|
E|---------------------------------------------------|
Composição de Günther Janssen / Toby Smith
Colaboração e revisão:
  • Gabriel Leite
6.019 exibições
    • ½ Tom
    • A
    • Bb
    • B
    • C
    • Db
    • D
    • Eb
    • E
    • F
    • F#
    • G
    • Ab
  • Adicionar à lista

    0 comentários

    Ver todos os comentários

    Conseguiu tocar?

    0 Tocaram 1 Ainda não

    Grave um vídeo tocando Little L e nos envie!

    00:00 / 00:00
    Outros vídeos desta música
    Repetir Qualidade Automático
    Outros vídeos desta música
    00:00 / 00:00
    Automático

    Cifra Club Pro

    Aproveite o Cifra Club com benefícios exclusivos e sem anúncios
    Cifra Club Pro
    Aproveite o Cifra Club com benefícios exclusivos e sem anúncios
    OK