Cifra Club

Aprenda

Stop

Jane's Addiction

Tab de baixo: Principal
Stop! by
Janes Addiction

Hey, if you have tips on the bass bridge after his
speaking break give me a comment I’ll edit the tab.

Intro/Chorus
G|---------------------|-------------------|--------------------|---|
D|---------------------|-------------------|--------------------|---|
A|-7-7--5-4------------|-7-7---5-4---------|-7-7--5-4-----------|---|
E|----7------5-5-7-7---|-----7-----5-5-----|----7------5-5-7-7--|-0-|

G|---------------------|-------------------|--------------------|---|
D|---------------------|-------------------|--------------------|---|
A|-7-7--5-4------------|-7-7---5-4---------|-7-7--5-4-----------|---|
E|----7------5-5-7-7---|-----7-----5-5-----|----7------5-5-7-7--|-5-|

Verse
(…“stop now!…”) 11 Bars
G|--------------------|
D|--------------------|
A|--------------------|
E|-0---3-3-3---5-5-5--|

(…”stop!”…)
                        every first beat is an open E for 4 bars then…
G|---------------------|---------|
D|---------------------|---------|
A|---(4 bars of guitar)|---------|
E|-0-------------------|-0-------|

…(from, “then”)
|-------|
|-------|
|-5-7---|
|-----0-|

(…”Then the water will run…)
G|---------------------------------|
D|---------------------------------|
A|-5-7-----5-7-----5-7-----5-7---5-|
E|-----0-------0-------0-------0---|

Guitar Solo: Verse ( 12 Bars) the it’s a build in higher notes to hard to recognize. 
make something up you’ll get it.

|-Talking Break-|-0/-11/--13/--19--|
|-Talking Break-|-2--12/--14/--17--|
|-Talking Break-|------------------|
|-Talking Break-|------------------|

Ending Chorus:
G|---------------------|-------------------|-------------------------|
D|---------------------|-------------------|-------------------------|
A|-7-7--5-4------------|-7-7---5-4---------|-7-7--5-4----------------|
E|----7------5-5-7-7---|-----7-----5-5-----|----7------5-5-7-7---0-0-|
Composição de Jane's Addiction
Colaboração e revisão:
  • Gabriel Leite
479 exibições

0 comentários

Ver todos os comentários
00:00 / 00:00
Outros vídeos desta música
Repetir Qualidade Automático
Outros vídeos desta música
00:00 / 00:00
Automático

Cifra Club Pro

Aproveite o Cifra Club com benefícios exclusivos e sem anúncios
Cifra Club Pro
Aproveite o Cifra Club com benefícios exclusivos e sem anúncios
OK