Cifra Club

Superhero

Jane's Addiction

Cifra: Principal (violão e guitarra)
Selo Cifra Club: esta cifra foi revisada para atender aos critérios oficiais da nossa Equipe de Qualidade.
tom: Bm
Main Riff (Intro/Verse):
    F5   Eb5  F5      Eb5 F5 Eb5  F5   Eb5  F5    Eb5 F5 Eb5   
E|-----------------------------|-------------------------|
B|-----------------------------|-------------------------|
G|-----------------------------|-------------------------|
D|-----------------------------|-------------------------|
A|-----------------------------|-------------------------|
E|-2--2--0---2-2--2--2-0-2-0---|-2--2--0---2--2--2-0-2-0-|


(0:37) Chorus:

Rhythm
E|-----------------|-----------------|-----------------|-----------------|
B|-----------------|-----------------|-----------------|-----------------|
G|-----------------|-----------------|-----------------|-----------------|
D|-6-6-6-6-7-7-7-7-|-9-9-9-9-9-9-9-9-|-6-6-6-6-7-7-7-7-|-9-9-9-9---9---9-|
A|-6-6-6-6-7-7-7-7-|-9-9-9-9-9-9-9-9-|-6-6-6-6-7-7-7-7-|-9-9-9-9---9---9-|
E|-4-4-4-4-5-5-5-5-|-7-7-7-7-7-7-7-7-|-4-4-4-4-5-5-5-5-|-7-7-7-7---7---7-|
  | 
  | Lead
E|-----4-------4---|-----7-------7---|-----4-------5---|-----7-----------|
B|-----4-------4---|-----7-------7---|-----4-------5---|-----7-----------|
G|-----5-------6---|-----7-------7---|-----5-------6---|-----7---7b8~~---|
D|-6-6-6---7-7-7---|-9-9-9---9-9-9---|-6-6-6---7-7-7---|-9-9-9--------9--|
A|-6-6-6---7-7-7---|-9-9-9---9-9-9---|-6-6-6---7-7-7---|-9-9-9-----------|
E|-4-4-4---5-5-5---|-7-7-7---7-7-7---|-4-4-4---5-5-5---|-7-7-7-----------|
  
Rhythm - continued
E|-----------------|-----------------|-----------------|-----------------|
B|-----------------|-----------------|-----------------|-----------------|
G|-----------------|-----------------|-----------------|-----------------|
D|-6-6-6-6-7-7-7-7-|-9-9-9-9---9---9-|-6-6-6-6-7-7-7-7-|-9-9-9-9-9-9-9-9-|
A|-6-6-6-6-7-7-7-7-|-9-9-9-9---9---9-|-6-6-6-6-7-7-7-7-|-9-9-9-9-9-9-9-9-|
E|-4-4-4-4-5-5-5-5-|-7-7-7-7---7---7-|-4-4-4-4-5-5-5-5-|-7-7-7-7-7-7-7-7-|
  | 
  | Lead
E|-----4-------4---|-----7-------7---|-----4-------5---|-----7-----------|
B|-----4-------4---|-----7-------7---|-----4-------5---|-----7-----------|
G|-----5-------6---|-----7-------7---|-----5-------6---|-----7--------7--|
D|-6-6-6---7-7-7---|-9-9-9---9-9-9---|-6-6-6---7-7-7---|-9-9-9-----7h9---|
A|-6-6-6---7-7-7---|-9-9-9---9-9-9---|-6-6-6---7-7-7---|-9-9-9--7h9------|
E|-4-4-4---5-5-5---|-7-7-7---7-7-7---|-4-4-4---5-5-5---|-7-7-7-----------|
  

(0:55): Main Riff

(1:14): Chorus - same as before except ending:

Chorus Ending (before Bridge):

Lead Guitar (Rhythm plays chords like before)
E|------------------------------|
B|-9b10r9p7-9p7---7-------------|
G|-9b10r9p7-9p7---7-------------|
D|------------------9p7---------|
A|----------------------9p7\5~--|
E|------------------------------|



(1:33): Bridge -
E|-----------|-----------|--------------|-----------|-----------|
B|-----------|-----------|--------------|-----------|-----------|
G|-9---------|-----------|-7-----6------|-4---------|-9---------|
D|-9---------|-8---------|-7-----6------|-4---------|-9---------|
A|-7---------|-8---------|-5-----4------|-2---------|-7---------|
E|-----------|-6---------|--------------|-----------|-----------|

E|-----------|--------------|-----------------|-----------------|
B|-----------|--------------|-----------------|-----------------|
G|-6---------|-------7------|-----------------|-----------------|
D|-6---------|-2-----7------|-6-6-6-6-6-6-6-6-|-6-6-6-6-6-6-6-6-|
A|-4---------|-2-----5------|-6-6-6-6-6-6-6-6-|-6-6-6-6-6-6-6-6-|
E|-----------|-0------------|-4-4-4-4-4-4-4-4-|-4-4-4-4-4-4-4-4-|


(1:54): Main Riff

(2:03): Solo 1

E|----------------------------------------|
B|-----------------------------10b11------|
G|-11p9-9-11p9-9-11p9-9-11p9-9------11p9--|
D|----------------------------------------|
A|----------------------------------------|
E|----------------------------------------|

E|-----------------------------------------|
B|-----------------------------12b14-10b11-|
G|-11p9-9-11p9-9-11p9-9-11p9-9-------------|
D|-----------------------------------------|
A|-----------------------------------------|
E|-----------------------------------------|

E|---------------------------|----------------------|
B|-(11r10)-------------------|----------------------|
G|--------11p9-11~~----------|----------------------|
D|------------------9h11p9~~-|----7h9p7~~-9p7-------|
A|---------------------------|---------------7b9~~--|
E|---------------------------|----------------------|



(2:13): Guitar Bit After solo - Heavy Fuzz 

E|---------------------|
B|---------------------|
G|---------------------|
D|-------2----------2--|
A|-------2----------2--|
E|-2--2-------2-2------| <- notice different rhythm



(2:31) Play Chorus, same as before 



(2:50): Chorus repeats with backing solo

   Lead
E|------------|--------------------|-------------|--------------------------|
B|-9~~~-10~~~-|--------------------|-9~~~~-------|-12--12p10h12-10b12-10b12-|
G|------------|---------7---7~~----|-------------|--------------------------|
D|------------|-9~~-7h9---9-----9--|-------------|--------------------------|
A|------------|--------------------|-------------|--------------------------|
E|------------|--------------------|-------------|--------------------------|
  |
  |Rhythm
E|-----------------|-----------------|-----------------|---------------------|
B|-----------------|-----------------|-----------------|---------------------|
G|-----------------|-----------------|-----------------|---------9b11r9------|
D|-6-6-6-6-7-7-7-7-|-9-9-9-9---9---9-|-6-6-6-6-7-7-7-7-|-9-9-9-9-------7b9r7-|
A|-6-6-6-6-7-7-7-7-|-9-9-9-9---9---9-|-6-6-6-6-7-7-7-7-|-9-9-9-9-------------|
E|-4-4-4-4-5-5-5-5-|-7-7-7-7---7---7-|-4-4-4-4-5-5-5-5-|-7-7-7-7-------------|


   Lead
E|------------|----------------------|-10b12r10~---------10------------|-------|
B|-9~~~-10~~~-|----------------------|-----------12p10-12--12p10-------|-------|
G|------------|-7--------7---7~~-----|--------------------------9b10r9-|-8~----|
D|------------|---9~-7h9---9-----9~~-|---------------------------------|-------|
A|------------|----------------------|---------------------------------|-------|
E|------------|----------------------|---------------------------------|-------|
  |
  |Rhythm
E|-----------------|-----------------|-----------------|-------------|
B|-----------------|-----------------|-----------------|-------------|
G|-----------------|-----------------|-----------------|-------------|
D|-6-6-6-6-7-7-7-7-|-9-9-9-9-9-9-9---|-6-6-6-6-7-7-7-7-|-9-----------|
A|-6-6-6-6-7-7-7-7-|-9-9-9-9-9-9-9---|-6-6-6-6-7-7-7-7-|-9-----------|
E|-4-4-4-4-5-5-5-5-|-7-7-7-7-7-7-7---|-4-4-4-4-5-5-5-5-|-7-----------|

slide off notes when transitioning to Outro solo


Outro Solo - Intro Riff played on other guitar
E|----------------------------|--------------------------------|
B|----------------------------|-------------16-16b17~-16-16-14-|
G|----------------------------|-------------16-16b17~-16-16-14-|
D|--------7--7-7-7------7-----|------14--14--------------------|
A|-7h9-9------------7-9---7h9-|-14/16--16----------------------|
E|----------------------------|--------------------------------|
             pm**    *** 

E|------------------------------------|-----------------------------------|
B|-17________----17------------16-14--|-----------------------------------|
G|-16b18__r16p14-16b18__r16p14-16-14--|-----------------------------------|
D|------------------------------------|-16-14-----------------------------|
A|------------------------------------|------16-15-14-12-14-12~~---12--12-|
E|------------------------------------|-------------------------/14--14---|


(3:20)
E|-14-----14------14------------|-14-----14--------14~~----------|
B|-17b19--17b19---17b19--0------|-17b19--17b19--17b19~~17--------|
G|------------------------------|--------------------------------|
D|------------------------------|--------------------------------|
A|------------------------------|-----------------------------12-|
E|-------------------------/12\-|-------------------------/14----|


E|-14-----14-----14-----17b19__| _(b19)-17p14-17p14-14--14-----------14-----14-|
B|-17b19--17b19--17b19---------|---------------------17--17-17b19~~~--17b19---|
G|-----------------------------|----------------------------------------------|
D|-----------------------------|----------------------------------------------|
A|-----------------------------|----------------------------------------------|
E|-----------------------------|----------------------------------------------|


E|-17p14--14------14-----14-17p14--14---------|-*| use wah-----------------------|
B|------17--17b19---17b19--------17--17b19r17-|---------------------------------|
G|--------------------------------------------|-14-----16-----------------------|
D|--------------------------------------------|---16-14--16-14------------------|
A|--------------------------------------------|---------------16-15-14-14b16r14-|
E|--------------------------------------------|---------------------------------|

Ending:
E|-------------------------|--------------------|--------------------------|
B|-------------------------|--------------------|--------------------------|
G|-------------------------|--------------------|--------------------------|
D|-------------------------|--------------------|-4------------------------|
A|-12~---------------------|--------------------|-4------------------------|
E|------14~---12~----9~----|-8~---7~---5~~~~----|-2------------------------|




Key:
| /  slide up
| \  slide down
| h  hammer-on
| p  pull-off
| ~  vibrato
| b  bend note
| r  release bend
| () note is held over from previous bar
Outros vídeos desta música
    22 exibições
      • ½ Tom
      • Am
      • Bbm
      • Bm
      • Cm
      • C#m
      • Dm
      • Ebm
      • Em
      • Fm
      • F#m
      • Gm
      • G#m
    • Adicionar à lista

    Afinação da cifra

    Afinador online

      0 comentários

      Ver todos os comentários

      Entre para o Cifra Club PRO

      Tenha acesso a benefícios exclusivos no App e no Site

      • Chega de anúncios

      • Badges exclusivas

      • Mais recursos no app do Afinador

      • Atendimento Prioritário

      • Aumente seu limite de lista

      • Ajude a produzir mais conteúdo

      Cifra Club Pro

      Aproveite o Cifra Club com benefícios exclusivos e sem anúncios
      Cifra Club Pro
      Aproveite o Cifra Club com benefícios exclusivos e sem anúncios
      Ops (: Contenido disponible sólo en portugués.
      OK