Cifra Club

Trip Away

Jane's Addiction

Cifra: Principal (violão e guitarra)
Selo Cifra Club: esta cifra foi revisada para atender aos critérios oficiais da nossa Equipe de Qualidade.
tom: E
Intro:

                                                    1 step
e-|------------------|------------------|---------------------|-
B-|------------------|--15)~~~~~--------|--------------)\\-----|-
G-|----Drum-Intro----|--14--------------|------------14--p12--|-
D-|------------------|------------------|---------------------|-
A-|------------------|------------------|---------------------|-
E-|------------------|------------------|---------------------|-


e-|-------------------------|---------------15-15-x-x-15-15--|-
B-|-------------------------|---------------15-15-x-x-15-15--|-
G-|-------------------------|--------------------------------|-
D-|--14~~~~~\\---------------|--------------------------------|-
A-|----------------------)--|--------------------------------|-
E-|---------------------3---|--0-----------------------------|-




Verse:



e-|------------------------|------------------------|-
B-|------------------------|------------------------|-
G-|--7---7--x-6--6--x-6-6--|--7---7--x-6--6--x-6-6--|-
D-|--6---6--x-5--5--x-5-5--|--6---6--x-5--5--x-5-5--|-
A-|--7---7-----------------|--7---7-----------------|-
E-|------------------------|------------------------|-


e-|------------------------|-----------x-15-15-x-15--|-
B-|------------------------|-----------x-15-15-x-15--|-
G-|--7---7--x-6--6--x-6-6--|--7---7------------------|-
D-|--6---6--x-5--5--x-5-5--|--6---6------------------|-
A-|--7---7-----------------|--7---7------------------|-
E-|------------------------|-------------------------|-


e-|------------------------|------------------------|-
B-|------------------------|------------------------|-
G-|--7---7--x-6--6--x-6-6--|--7---7--x-6--6--x-6-6--|-
D-|--6---6--x-5--5--x-5-5--|--6---6--x-5--5--x-5-5--|-
A-|--7---7-----------------|--7---7-----------------|-
E-|------------------------|------------------------|-


e-|------------------------|------------------------|-
B-|------------------------|------------------------|-
G-|--7---7--x-6--6--x-6-6--|--7---7--x-6--6--x-6-6--|-
D-|--6---6--x-5--5--x-5-5--|--6---6--x-5--5--x-5-5--|-
A-|--7---7-----------------|--7---7-----------------|-
E-|------------------------|------------------------|-





Chorus:



e-|--15--15-15--x-15--15--x-15-15--|--15--15-15--x-15--15--x-15-15--|-
B-|--15--15-15--x-15--15--x-14-14--|--15--15-15--x-15--15--x-14-14--|-
G-|--------------------------------|--------------------------------|-
D-|--------------------------------|--------------------------------|-
A-|--------------------------------|--------------------------------|-
E-|--------------------------------|--------------------------------|-


e-|--15--15-15--x-15--15--x-15-15--|--15--15-15--x-15--15--x-15-15--|-
B-|--15--15-15--x-15--15--x-14-14--|--15--15-15--x-15--15--x-14-14--|-
G-|--------------------------------|--------------------------------|-
D-|--------------------------------|--------------------------------|-
A-|--------------------------------|--------------------------------|-
E-|--------------------------------|--------------------------------|-


e-|--15--x-x-15--x-15--15--x-15-15--|--15--x-x-15--x-15--15--x-15-15--|-
B-|--15--x-x-15--x-14--14--x-14-14--|--15--x-x-15--x-14--14--x-14-14--|-
G-|---------------------------------|---------------------------------|-
D-|---------------------------------|---------------------------------|-
A-|---------------------------------|---------------------------------|-
E-|---------------------------------|---------------------------------|-


e-|--15--x-x-15--x-15--15--x-15-15--|--15--x-x-15--x-15--15--x-15-15--|-
B-|--15--x-x-15--x-14--14--x-14-14--|--15--x-x-15--x-14--14--x-14-14--|-
G-|---------------------------------|---------------------------------|-
D-|---------------------------------|---------------------------------|-
A-|---------------------------------|---------------------------------|-
E-|---------------------------------|---------------------------------|-





Pre-Verse



e-|----------------------------|------------------------|-
B-|-----------x-x-x-x-x-x-x-x--|--3---------------------|-
G-|-----------x-x-x-x-x-x-x-x--|--2----2----------------|-
D-|--4--------x-x-x-x-x-x-x-x--|--0----2----------------|-
A-|--2---)-2-------------------|-------0----------------|-
E-|-----3--0-------------------|------------------------|-


e-|----------------------------|---------------------------------|-
B-|----------------------------|--3------------------------------|-
G-|----------------------------|--2----2/4-4-4\\2-0--2p0-2p0------|-
D-|--4-------------------------|--0-------------------------2-0--|-
A-|--2---)-2-------------------|---------------------------------|-
E-|-----3--0-------------------|---------------------------------|-


e-|---------------------|---------------15-15-x-x-15-15--|-
B-|---------------------|---------------15-15-x-x-15-15--|-
G-|---------------------|--------------------------------|-
D-|--2~~~~--------------|--------------------------------|-
A-|----------------)----|--------------------------------|-
E-|---------------3-----|--0-----------------------------|-





Interlude: Half-Speed, let all notes
on the B-String ring.



e-|-----------------------------------|-----------------------------------|-
B-|--0-----2-----3-----2-----2p0------|--0-----2-----3-----2-----2p0------|-
G-|----0-----0-----0-----0-------0----|----0-----0-----0-----0-------0----|-
D-|------2-----2-----2-----2-------2--|------2-----2-----2-----2-------2--|-
A-|-----------------------------------|-----------------------------------|-
E-|-----------------------------------|-----------------------------------|-


e-|-----------------------------------|-------------------------------------|-
B-|--0-----2-----3-----2-----2p0------|--0-----2-----3-----2-----2p0--------|-
G-|----0-----0-----0-----0-------0----|----0-----0-----0-----0-------0------|-
D-|------2-----2-----2-----2-------2--|------2-----2-----2-----2-------/14--|-
A-|-----------------------------------|-------------------------------------|-
E-|-----------------------------------|-------------------------------------|-


e-|---------------------------------------------------|-
B-|--12-------14-------15-------14-------14p12--------|-
G-|-----12-------12-------12-------12----------12-----|-
D-|--------14-------14-------14-------14----------14--|-
A-|---------------------------------------------------|-
E-|---------------------------------------------------|-


e-|---------------------------------------------------|-
B-|--12-------14-------15-------14-------14p12--------|-
G-|-----12-------12-------12-------12----------12-----|-
D-|--------14-------14-------14-------14----------14--|-
A-|---------------------------------------------------|-
E-|---------------------------------------------------|-


e-|---------------------------------------------------|-
B-|--12-------14-------15-------14-------14p12--------|-
G-|-----12-------12-------12-------12----------12-----|-
D-|--------14-------14-------14-------14----------14--|-
A-|---------------------------------------------------|-
E-|---------------------------------------------------|-


e-|---------------------------------------------------|-
B-|--12-------14-------15-------14-------14p12--------|-
G-|-----12-------12-------12-------12----------12-----|-
D-|--------14-------14-------14-------14----------14--|-
A-|---------------------------------------------------|-
E-|---------------------------------------------------|- x2


e-|----------------------|---------------------|-
B-|----0-----2------3----|----0-----2------3---|-
G-|------0-----0----0----|------0-----0----0---|-
D-|--2-----2-----2--2----|--2-----2-----2--2---|-
A-|----------------------|---------------------|-
E-|----------------------|---------------------|-


e-|----------------------|---------------------|-
B-|----0-----2------3----|----0-----2------3---|-
G-|------0-----0----0----|------0-----0----0---|-
D-|--2-----2-----2--2----|--2-----2-----2--2---|-
A-|----------------------|---------------------|-
E-|----------------------|---------------------|-





Guitar Solo:



Not exact. The fast parts are
kind of hard, but it is what I think is
being played.



     2:34
                                       )      )\\
e-|--12)----12)~~~--15p12-12)~~~~~~--17--15-17--p15---------|-
B-|--15-----15------------15-------------------------17p15--|-
G-|---------------------------------------------------------|-
D-|---------------------------------------------------------|-
A-|---------------------------------------------------------|-
E-|---------------------------------------------------------|-

                     Slow release
e-|-------------------------------------------|-
B-|-----15--------------)\\--------------------|-
G-|--16----16\\14p12----12------12--14--12~~~--|-
D-|-----------------14------14----------------|-
A-|-------------------------------------------|-
E-|-------------------------------------------|-

      brbrbrbrbrb
e-|----/\\/\\/\\/\\/\\/------------)------------------)--|-
B-|--14/\\/\\/\\/\\/\\/-14p12----12)--------------x-12)--|-
G-|--14------------14p12----12---------------x-12---|-
D-|----------------------14-----14p12----12---------|-
A-|-----------------------------------14------------|-
E-|-------------------------------------------------|-


e-|-----------------17-14-15-17-15-14...--------------17-----------|-
B-|--15)~~~~~~~~~~-----------------------or--20-19-20----20-19...--|-
G-|--14------------------------------------------------------------|-
D-|----------------------------------------------------------------|-
A-|----------------------------------------------------------------|-
E-|----------------------------------------------------------------|-

       )   )   )  |~~~   )
e-|--19--19--19--19-----21--(21)\\--15p12-15p12----12~~~---------------------|-
B-|--------------------------------------------15---------------------------|-
G-|------------------------------------------------------14p12-14p12----12--|-
D-|------------------------------------------------------------------14-----|-
A-|-------------------------------------------------------------------------|-
E-|-------------------------------------------------------------------------|-


e-|----------------------------------------|-
B-|----------------------------------------|-
G-|--14p12-14p12----12---------------------|-
D-|--------------14-----14p12-14p12----12--|-
A-|---------------------------------14-----|-
E-|----------------------------------------|-


e-|----------------------------------------|-
B-|----------------------------------------|-
G-|--14p12-14p12----12---------------------|-
D-|--------------14-----14p12-14p12----12--|-
A-|---------------------------------14-----|-
E-|----------------------------------------|-

       Gradual bend
e-|----------------------------------------|-
B-|--15)~~~~~~~~~~~~~~~~~~~~~--------------|-
G-|--14------------------------------------|-
D-|----------------------------------------|-
A-|----------------------------------------|-
E-|----------------------------------------|-




Verse:



e-|------------------------|------------------------|-
B-|------------------------|------------------------|-
G-|--7---7--x-6--6--x-6-6--|--7---7--x-6--6--x-6-6--|-
D-|--6---6--x-5--5--x-5-5--|--6---6--x-5--5--x-5-5--|-
A-|--7---7-----------------|--7---7-----------------|-
E-|------------------------|------------------------|-


e-|------------------------|-----------x-15-15-x-15--|-
B-|------------------------|-----------x-15-15-x-15--|-
G-|--7---7--x-6--6--x-6-6--|--7---7------------------|-
D-|--6---6--x-5--5--x-5-5--|--6---6------------------|-
A-|--7---7-----------------|--7---7------------------|-
E-|------------------------|-------------------------|-


e-|------------------------|------------------------|-
B-|------------------------|------------------------|-
G-|--7---7--x-6--6--x-6-6--|--7---7--x-6--6--x-6-6--|-
D-|--6---6--x-5--5--x-5-5--|--6---6--x-5--5--x-5-5--|-
A-|--7---7-----------------|--7---7-----------------|-
E-|------------------------|------------------------|-


e-|------------------------|------------------------|-
B-|------------------------|------------------------|-
G-|--7---7--x-6--6--x-6-6--|--7---7--x-6--6--x-6-6--|-
D-|--6---6--x-5--5--x-5-5--|--6---6--x-5--5--x-5-5--|-
A-|--7---7-----------------|--7---7-----------------|-
E-|------------------------|------------------------|-





Chorus:



e-|--15--15-15--x-15--15--x-15-15--|--15--15-15--x-15--15--x-15-15--|-
B-|--15--15-15--x-15--15--x-14-14--|--15--15-15--x-15--15--x-14-14--|-
G-|--------------------------------|--------------------------------|-
D-|--------------------------------|--------------------------------|-
A-|--------------------------------|--------------------------------|-
E-|--------------------------------|--------------------------------|-


e-|--15--15-15--x-15--15--x-15-15--|--15--15-15--x-15--15--x-15-15--|-
B-|--15--15-15--x-15--15--x-14-14--|--15--15-15--x-15--15--x-14-14--|-
G-|--------------------------------|--------------------------------|-
D-|--------------------------------|--------------------------------|-
A-|--------------------------------|--------------------------------|-
E-|--------------------------------|--------------------------------|-


e-|--15--x-x-15--x-15--15--x-15-15--|--15--x-x-15--x-15--15--x-15-15--|-
B-|--15--x-x-15--x-14--14--x-14-14--|--15--x-x-15--x-14--14--x-14-14--|-
G-|---------------------------------|---------------------------------|-
D-|---------------------------------|---------------------------------|-
A-|---------------------------------|---------------------------------|-
E-|---------------------------------|---------------------------------|-


e-|--15--x-x-15--x-15--15--x-15-15--|--15--x-x-15--x-15--15--x-15-15--|-
B-|--15--x-x-15--x-14--14--x-14-14--|--15--x-x-15--x-14--14--x-14-14--|-
G-|---------------------------------|---------------------------------|-
D-|---------------------------------|---------------------------------|-
A-|---------------------------------|---------------------------------|-
E-|---------------------------------|---------------------------------|-





End:



e-|----------------------------|-----------------------|-
B-|-----------x-x-x-x-x-x-x-x--|--3--------------------|-
G-|-----------x-x-x-x-x-x-x-x--|--2--------------------|-
D-|--4--------x-x-x-x-x-x-x-x--|--0--------------------|-
A-|--2---)-2-------------------|-----------------------|-
E-|-----3--0-------------------|-----------------------|-
Outros vídeos desta música
    10 exibições
      • ½ Tom
      • A
      • Bb
      • B
      • C
      • Db
      • D
      • Eb
      • E
      • F
      • F#
      • G
      • Ab
    • Adicionar à lista

    Afinação da cifra

    Afinador online

      0 comentários

      Ver todos os comentários

      Entre para o Cifra Club PRO

      Tenha acesso a benefícios exclusivos no App e no Site

      • Chega de anúncios

      • Badges exclusivas

      • Mais recursos no app do Afinador

      • Atendimento Prioritário

      • Aumente seu limite de lista

      • Ajude a produzir mais conteúdo

      Cifra Club Pro

      Aproveite o Cifra Club com benefícios exclusivos e sem anúncios
      Cifra Club Pro
      Aproveite o Cifra Club com benefícios exclusivos e sem anúncios
      Ops (: Contenido disponible sólo en portugués.
      OK