Cifra Club

The Rose

Janis Joplin

Cifra: Principal (violão e guitarra)
tom: C
C                   G
Some say love, it is a river,
 F   Fm                C
that drowns the tender reed.
   C              G
Some say love, it is a razor,
F  Fm                 C
that leaves your soul to bleed.
Em                 Am
Some say love, it is a hunger,
 F               C   Em7
an endless aching need.
   C          G
I say love, it is a flower, 
  F  Fm    C
and you it's only seed.


e|---------------------------------------------------------------------------|
B|-5----5------5----5--------------------------------------------------------|
G|----7----5------7----5-----------------------------------------------------|
D|---------------------------------------------------------------------------|
A|---------------------------------------------------------------------------|
E|---------------------------------------------------------------------------|

(Pick Chords)

It's the heart, afraid of breaking,
that never, learns to dance.
It's the dream, afraid of waking,
that never, takes the chance.
It's the one, who won't be taken,
who cannot, seem to give.
And the soul, afraid of dying,
that never, learns to live.

(Start Strumming)

When the night has, been to lonley, 
and the road has been to long.
That you think that love is only,
for the lucky and the strong.
Just remember in the winter,
far beneath the bitter snows,
Lies the seed that with the suns love,
in the spring becomes the rose.

e|---------------------------------------------------------------------------|
B|-5----5------5----5----------1---------------------------------------------|
G|----7----5------7----5-------0---------------------------------------------|
D|-----------------------------2---------------------------------------------|
A|-----------------------------3---------------------------------------------|
E|---------------------------------------------------------------------------|
00:00 / 00:00
Outros vídeos desta música
Repetir
Outros vídeos desta música
Composição de Amanda McBroom
12.051 exibições
    • ½ Tom
    • A
    • Bb
    • B
    • C
    • Db
    • D
    • Eb
    • E
    • F
    • F#
    • G
    • Ab
  • Adicionar à lista

    0 comentários

    Ver todos os comentários
    00:00 / 00:00

    Cifra Club Pro

    Aproveite o Cifra Club com benefícios exclusivos e sem anúncios
    Cifra Club Pro
    Aproveite o Cifra Club com benefícios exclusivos e sem anúncios
    OK