Cifra Club

A Última Noite

Jão

Cifra: Principal (violão e guitarra)
Selo Cifra Club: esta cifra foi revisada para atender aos critérios oficiais da nossa Equipe de Qualidade.
tom: Em
[Intro] Em  C

[Riff 1]

E|--12-10-----12-10-------------------------|
B|--------12--------12----10h12p10----------|
G|---------------------------------12\9-----|
D|------------------------------------------|
A|------------------------------------------|
E|------------------------------------------|

 Em
Uma noite pra viver tudo

Uma noite acordados
 C
Uma noite pra roubar um banco

Rasgar a roupa apaixonados

 Em
Uma noite depois da noite

Em que a gente termina
  C
Nosso pacto, a última noite

E a melhor das nossas vidas

 D9
Uma noite no alto de um prédio
 C
Vendo a cidade por cima
 Em
Nós somos mesmo tão pequenos
 G
Isso é a coisa mais linda

 D9
Uma noite de supernova
  C
Pois da morte vem a vida
 Em
Uma noite pra sua loucura
 G                               C  D9
Que você guarda embaixo da língua

             G
E eu vou correr tão rápido
          Em
O vento no meu rosto, me secando
             C
O choro tão envergonhado
  G
Vem do meu lado

              Em
Num beijo a gente esquece
                       C
O por que a gente deu tão errado
   D9
A mais bonita das despedidas
    C
A melhor noite das nossas vidas

( Em  C )

 D9
Uma noite pra correr no carro
 C
Uma noite pra ver Deus
 Em
No seu olho, no joelho
 G
No seu cabelo embaraçado ao meu

 D9
Uma noite pra você rir
 C
Eu vou te abraçar tão bêbado
 Em
Sua mão dentro da minha calça
 G                            D9
Me faz graça e esquece o medo

             G
E eu vou correr tão rápido
          Em
O vento no meu rosto, me secando
             C
O choro tão envergonhado
  G
Vem do meu lado

              Em
Num beijo a gente esquece
                       C
O por que a gente deu tão errado
   D9
A mais bonita das despedidas
    C
A melhor noite das nossas vidas

 G
Uma noite com a certeza
 F
Que fizemos tudo errado
 C
E a liberdade do abandono

Do futuro e do passado

 G
Sem qualquer destino
   F
Sem qualquer garantia
     C
Minha única promessa é que essa noite
                   D9      G  Em 
É a melhor das nossas vidas

             G
E eu vou correr tão rápido
          Em
O vento no meu rosto, me secando
             C
O choro tão envergonhado
  G
Vem do meu lado

              Em
Num beijo a gente esquece
                       C
O por que a gente deu tão errado
   D9
A mais bonita das despedidas
    C
A melhor noite das nossas vidas

[Riff 2]

            G
E|------------------------------------------|
B|-----------------1h0----------------------|
G|------0----2---4-----2h0------------------|
D|---0--------------------------------------|
A|------------------------------------------|
E|-3---3---3---3----------------------------|

            Em
E|------------------------------------------|
B|-----------------1h0----------------------|
G|------0----2---4-----2h0------------------|
D|---2--------------------------------------|
A|------------------------------------------|
E|-0---0---0---0----------------------------|
Outros vídeos desta música
64.863 exibições
    • ½ Tom
    • Am
    • Bbm
    • Bm
    • Cm
    • C#m
    • Dm
    • Ebm
    • Em
    • Fm
    • F#m
    • Gm
    • G#m
  • Adicionar à lista

Afinação da cifra

Afinador online

    0 comentários

    Ver todos os comentários

    Entre para o Cifra Club PRO

    Tenha acesso a benefícios exclusivos no App e no Site

    • Chega de anúncios

    • Mais recursos no app do Afinador

    • Atendimento Prioritário

    • Aumente seu limite de lista

    • Ajude a produzir mais conteúdo

    Cifra Club Pro

    Aproveite o Cifra Club com benefícios exclusivos e sem anúncios
    Cifra Club Pro
    Aproveite o Cifra Club com benefícios exclusivos e sem anúncios
    OK