Cifra Club

Barcelona

Jão

Cifra: Principal (violão e guitarra)
Selo Cifra Club: esta cifra foi revisada para atender aos critérios oficiais da nossa Equipe de Qualidade.
tom: Cm
[Intro]

E|-1--13-13-13-11-10h11p10----10------------|
B|-1-----------------------13----13-12------|
G|-1----------------------------------------|
D|-0----------------------------------------|
A|------------------------------------------|
E|------------------------------------------|

E|----------------------------------------1-|
B|----------------------------------------1-|
G|-13p12-10-------------------------------1-|
D|----------13p12-10-9--------------------0-|
A|---------------------11p10-8-6-5p3-2------|
E|------------------------------------4-3---|

[Primeira Parte]

E|------------------------------------------|
B|---1--------------------------------------|
G|---------0-1-----------0h1-0--------------|
D|-------0-----0h1---0-3-------3-1-0--------|
A|-3---3-----------------------------3------|
E|------------------------------------------|

Mergulhei e era água fria

Meu Deus, que mania de me afogar

Supliquei à Sagrada Família

Que tivesse piedade

Pra eu poder me salvar

 Fm7
Me lambeu como um sorvete
 G7
No verão mediterrâneo
 Ab9
Feito à imagem de um deus
G7
Ou um santo italiano
 Ab9
Me deixou em carne viva
 G7
Vivo dentro da chacina
 Ab9                   G7
Dos teus montes de amores

[Refrão]
 
      Cm7  G7
Barcelona
      Cm7  G7
Barcelona
           Cm7  G7
Diz que me ama
      Cm7  G7
Barcelona

[Segunda Parte]

Terminei minha vida vazia

Solto à obra prima

Em Santa Maria do Mar

Sem amor, tão profano

De quem conheceu o sublime

E voltou à chatice de ser humano

 Fm7
Lúcia, Paulo, Hector, Maria
 G7
La más bella despedida
 Ab7M
Juan, Pablo, Diego, Sofia
    G7
El San Diego nos abriga

[Refrão]

      Cm7  G7
Barcelona
      Cm7  G7
Barcelona
           Cm7  G7
Diz que me ama
      Cm7  G7
Barcelona

[Ponte]

 Cm7        Dm7(5-)  G7
Barcelona, Barce____lona
 Cm7        Dm7(5-)  G7
Barcelona, Barce____lona
 Cm7        Dm7(5-)  G7
Barcelona, Barce____lona
 Cm7        Dm7(5-)  G7
Barcelona, Barce____lona

[Refrão]
 
      Cm7  G7
Barcelona
      Cm7  G7
Barcelona
           Cm7  G7
Diz que me ama
      Cm7  G7
Barcelona

[Final] Cm
Outros vídeos desta música
50.701 exibições
    • ½ Tom
    • Am
    • Bbm
    • Bm
    • Cm
    • C#m
    • Dm
    • Ebm
    • Em
    • Fm
    • F#m
    • Gm
    • G#m
  • Adicionar à lista

Afinação da cifra

Afinador online

    0 comentários

    Ver todos os comentários

    Entre para o Cifra Club PRO

    Tenha acesso a benefícios exclusivos no App e no Site

    • Chega de anúncios

    • Mais recursos no app do Afinador

    • Atendimento Prioritário

    • Aumente seu limite de lista

    • Ajude a produzir mais conteúdo

    Cifra Club Pro

    Aproveite o Cifra Club com benefícios exclusivos e sem anúncios
    Cifra Club Pro
    Aproveite o Cifra Club com benefícios exclusivos e sem anúncios
    OK