Cifra Club

Aprenda

Hello, You Beautiful Thing

Jason Mraz

Cifra: Principal (violão e guitarra)
tom: C
     Riff 1: C9/F#
E|-------------------------------------------|
B|-------------------------------------------|
G|-------------------------------------------|
D|-------2-0---------------------------------|
A|---2---------------------------------------|
E|-3---3-------------------------------------|

     Riff 2: Am7
E|-------------------------------------------|
B|-------------------------------------------|
G|-------------------------------------------|
D|-------5-0---------------------------------|
A|---3-------0-------------------------------|
E|-5---5-------------------------------------|

     Riff 3: F5
E|-------------------------------------------|
B|-------------------------------------------|
G|-------------------------------------------|
D|-------2-----2-----2p0-----0---------------|
A|---3-----3-----3-------3-------------------|
E|-1---1-----1-----1-------1-----------------|

Intro: C9/F# AM7 F5 2x

C9/F#                          AM7
Fall out of bed and catch a fading star
F5
Fancy, I woke up before my alarm
           C9/F#
Brought my mind through my eyes
         AM7
It's the best I can do
            F5
Before it's automatic, hand it over, turn it to you

             C9/F#
Though her smile when it happens
          AM7
Almost as if it was magic
    F5
It means there's a God somewhere and he's laughing
        C9/F#                 AM7
And I shuffle my slipperless toes to the kitchen
         F5 x
Still low to the ground, but high on living

        C9/F#    AM7                   F5
And I know, I know it's gonna be a good day
    C9/F#   AM7          F5
Hello, hello, you beautiful thing

        C9/F#                        AM7
Waking up, I stretch my body and acknowledge some aches
F5
It must be something I did yesterday
        C9/F#
Pour a cup of liquid gold
           AM7                  F5 x
Because my engine's still cold
But in a minute everything's gonna change

          C9/F#   AM7                   F5
'Cause I know, I know it's gonna be a good day
     C9/F#  AM7          F5
Hello, hello, you beautiful thing
     C9/F#  AM7          F5
Hello, hello, you beautiful thing

C9/F#                  AM7         F5
This is what I've been waiting for
(This is what I've been waiting for)
C9/F#                  AM7         F5
This is what I've been waiting for
(This is what I've been waiting for)

[Passagem]
E|--------------------------------------------------------|
B|--------------------------------------------------------|
G|-----0---0-------0---0-------0---0----------------------|
D|---2---4---2---2---4---2---2---2---2--------------------|
A|-2-----------2-----------3------------------------------|
E|--------------------------------------------------------|

E|--------------------------------------------------------|
B|--------------------------------------------------------|
G|-----0---0-------0---0-------0---0---0------------------|
D|---2---4---2---2---4---2-------2---2-2------------------|
A|-2-----------2-------------3---------3------------------|
E|-------------------------1-----------1------------------|

         C9/F#                AM7                      F5
Looking out from a cul de sac watching the band of the earth
Take the plaque of the night from the dirt
        C9/F#                   AM7                F5
I can see from the depths of my re-adjustinized reflection
Of yes's and that ever changing sky
            C9/F#                 AM7
But why do bad dreams linger long after I awake?
             F5
And I don't need no sins or violence or pain replayed
       C9/F#                AM7
And I feel quit foolish sometimes when I pray
         F5 x
But my thoughts are all I've got
So I try to make them brave

          C9/F#  AM7                  F5
And I know, I know it's gonna be a good day
     C9/F#  AM7           F5
Hello, hello, you beautiful thing
     C9/F#  AM7           F5
Hello, hello, you beautiful thing

C9/F#                  AM7         F5
This is what I've been waiting for
(This is what I've been waiting for)
C9/F#                  AM7         F5
This is what I've been waiting for
(This is what I've been waiting for)
C9/F#                  AM7         F5
This is what I've been waiting for
(This is what I've been waiting for)
C9/F#                  AM7         F5
This is what I've been waiting for
(This is what I've been waiting for)

          C9/F#   AM7                 F5
And I know, I know it's gonna be a good day
     C9/F#  AM7          F5 ;
Hello, hello, you beautiful thing
Compositor não encontrado.
Colaboração e revisão:
  • Dênis Arnold
  • Douglas Kawê
  • Mateus Amin
5.617 exibições
    • ½ Tom
    • A
    • Bb
    • B
    • C
    • Db
    • D
    • Eb
    • E
    • F
    • F#
    • G
    • Ab
  • Adicionar à lista

    0 comentários

    Ver todos os comentários

    Conseguiu tocar?

    3 Tocaram 1 Ainda não

    Grave um vídeo tocando Hello, You Beautiful Thing e nos envie!

    00:00 / 00:00
    Outros vídeos desta música
    Repetir Qualidade Automático
    Outros vídeos desta música
    00:00 / 00:00
    Automático

    Cifra Club Pro

    Aproveite o Cifra Club com benefícios exclusivos e sem anúncios
    Cifra Club Pro
    Aproveite o Cifra Club com benefícios exclusivos e sem anúncios
    OK