Cifra Club

I Won't Give Up

Jason Mraz

Cifra: Principal
exibições 719.822
Tom: A (com acordes na forma de G) Capotraste na 2ª casa
Afinação [D A D G B E]

Intro:
               G/D     D
E|-----------------------------------------
B|---------------5----5--------------------
G|-----------6--------4--------------------
D|-2-2-2-4-6-7--------6--6--6--6--2-4-6----
A|--------------------2--------------------
D|-----------2-2---2--2-2-2-2-2-2-2-2-2----
    G/D    D                  G/D    D
E|-----------------------------------------
B|----5---5----------------------5--5------
G|-6------4------------------6------4------
D|-7------6--6--6--2--2-4-6--7------6--6---
A|--------2-------------------------2------
D|-2-2-2--2-2-2-2-2-2-2-2-2--2-2--2-2-2-2--
          ↓                         ↓

           A A4               A
E|---------------------------------------------
B|------------4h5--5-5-5-5-5-5-5-4-------------
G|------------4----4-4-4-4-4-4-4-4-------------
D|6--6--6\4-2-4----4-4-4-4-4-4-4-4-------------
A|------------2----2-2-2-2-2-2-2-2-------------
D|2-2-2-2--------------------------------------
              ↓    ↑ ↓ ↑ ↓ ↑ ↓ ↑ ↓

                  G/D   D
When I look into your eyes
                        G/D     D
It´s like watching the night sky
                G/D  D
Or a beautiful sun__rise
                      A   A4  A
There´s so much they hold
                   G/D   D
And just like them old stars
                   G/D     D
I See that you´ve come so far
                   G/D D
To be right where you  are
                 A    A4  A
How old is your soul?

Primeira Parte:

Parte 1:
    G/D       D              G/D    D
E|-----------------------------------------
B|----5--------------------------5---------
G|-6------4------------------6------4------
D|-7------6--6--6--2--2-4-6--7------6--6---
A|-----------------------------------------
D|-2-2-2--2-2-2-2-2-2-2------2-2--2-2-2--2-

Parte 2:
                   G/D      D
E|-----------------------------------------
B|-------------------5---------------------
G|----------------6-----4------------------
D|-6---2-2-2-4-6--7-----6--6--6--6--6\4-2--
A|-----------------------------------------
D|-2-2------------2-2-2-2-2-2-2-2-2-2------

Parte 3:
           A A4               A
E|-----------------------------------------
B|--------4h5--5-5-5-5-5-5-5-4-------------
G|--------4----4-4-4-4-4-4-4-4-------------
D|--------4----4-4-4-4-4-4-4-4-------------
A|--------2----2-2-2-2-2-2-2-2-------------
D|-----------------------------------------
          ↓    ↑ ↓ ↑ ↓ ↑ ↓ ↑ ↓

Parte 4:
          G/D    D
E|-----------------------------------------
B|----------5------------------------------
G|-------6-----4--4--4---4-----------------
D|-2-4-6-7-----6-----------2-4-6-----------
A|-----------------------------------------
D|-2-----2-2-2-2-2-2-2-2---2---------------

Parte 5:
   G/D     D                   G/D      D
E|-----------------------------------------
B|---5-----------------------------5-------
G|6-----4---------------------6--------4---
D|7-----6--6--6---6----2-4-6--7--------6---
A|-----------------------------------------
D|2-2-2-2-2-2-2-2---2--2------2-2---2--2---

Parte 6:
E|-----------------------------------------
B|-----------------------------------------
G|-----------------------------------------
D|--6--6---6----6\4-2----------------------
A|-----------------------------------------
D|-2-2-2-2---2--2--------------------------

Parte 7:
           A A4               A
E|-----------------------------------------
B|--------4h5--5-5-5-5-5-5-5-4-------------
G|--------4----4-4-4-4-4-4-4-4-------------
D|--------4----4-4-4-4-4-4-4-4-------------
A|--------2----2-2-2-2-2-2-2-2-------------
D|-----------------------------------------
          ↓    ↑ ↓ ↑ ↓ ↑ ↓ ↑ ↓

Refrão 1:
             G5    D5(9)
I won´t give up on us
              Bm11     A
Even if the skies get rough
               G5      D5(9)
I´m giving you all my love
                  A  A4  A
I´m still looking up

Segunda Parte:
                      G/D   D
And when you´re needing your space
            G/D   D
To do some navi__gating
              G/D       D
I´ll be here patiently waiting
                 A    A4  A
To see what you find

Segunda Parte:
              G/D    D
E|-----------------------------------------
B|--------------5--------------------------
G|-----------6-----4-----------------------
D|-2-4-6-2---7-----6--6--6--6--2-4-6-------
A|-----------------------------------------
D|-2---------2-2-2-2-2-2-2-2-2-2-----------

     G/D        D
E|-----------------------------------------
B|------5----------------------------------
G|--6--------4-----------------------------
D|--7--------6--6--6--6--2-4-6-------------
A|-----------------------------------------
D|--2-2---2--2-2-2-2-2-2-2-----------------

      G/D     D
E|-----------------------------------------
B|------5----------------------------------
G|---6-----4-------------------------------
D|---7-----6--6--6--6--6\4-2---------------
A|-----------------------------------------
D|---2-2-2-2-2-2-2-2-2-2-------------------

           A A4               A
E|-----------------------------------------
B|--------4h5--5-5-5-5-5-5-5-4-------------
G|--------4----4-4-4-4-4-4-4-4-------------
D|--------4----4-4-4-4-4-4-4-4-------------
A|--------2----2-2-2-2-2-2-2-2-------------
D|-----------------------------------------

Refrão 2:
                 G5         D5(9)
Cause even the stars, they burn
           Bm11       A
Some even fall to the earth
          G5     D5(9)
We got a lot to learn
                 A      A4   A
God knows we´re worthy
              ( C9/5- C9 ) (2x) [Passagem]
No I won´t give up

Passagem:
E|--------------------
B|-9--------7----------
G|---------------------
D|---------------------
A|-----7---------------
D|-7-7---7--7-7---7----

Terceira Parte:
         Em
I don´t wanna be someone who walks away so easily
                                              A      A4   A
I´m here to stay and make the difference that I can make
     Em
Our differences they do a lot to teach us how to use
The tools, the skills we´ve got
               A           A4   A
Yeah we got a lot at stake
           C7M
And in the end, you´re still my friend
At least we didn´t tend
                                    A9/C#
For us to work we didn´t break, we didn´t burn
We had to learn how to bend
Without the world caving in
C7M                        A9/C#
I had to learn what I got, and what I´m not
          D5(9)
And who I am

Refrão:
             G5    D5(9)
I won´t give up on us
              Bm11     A
Even if the skies get rough
            G5         D5(9)
I´m giving you all my love
                  Bm11  A
I´m still looking up

             G5    D5(9)
I won´t give up on us
               Bm11       A
God knows I´m tough, he knows
          G5     D5(9)
We got a lot to learn
                 A4  A
God knows we´re worthy

             G5    D5(9)
I won´t give up on us
              Bm11     A
Even if the skies get rough
               G       D5(9)
I´m giving you all my love
              A
I´m still looking up
Acordes para:
    Composição: Jason Mraz / Michael NatterColaboração e revisão:
    • Kévin Nascimento
    • Caroline
    • Diéfferson Santos

    0 comentários

      mostrar mais comentários

      Conseguiu tocar?

      73tocaram2ainda não

      Grave um vídeo tocando I Won't Give Up e mande pra gente!

      00:00 / 00:00
      outros vídeos desta música
      repetirqualidadeautomática
      Outro vídeos desta música
        00:00 / 00:00
        automática
        Capítulos
        • Início
        • Dicas iniciais
        • Tocando a música
        • Acordes da música
        • Tocando Introdução
        • Ensinando Introdução
        • Tocando Primeira Parte
        • Ensinando Primeira Parte
        • Tocando Refrão
        • Ensinando Ritmo do Refrão
        • Tocando Segunda Parte
        • Ensinando Segunda Parte
        • Acordes do Final
        • Tocando Passagem e Final
        • Ensinando Passagem
        • Ensinando Ritmo do Final
        • Encerramento
        OK