Cifra Club

I Won't Give Up

Jason Mraz

Cifra: Principal (violão e guitarra)
tom: E (forma dos acordes no tom de D) Capotraste na 2ª casa
Afinação [D A D G B E]

Intro: G/D  D  G/D  D 
       G/D  D  A  A4  A

[Tab Intro]

               G/D     D
E|-----------------------------------------|
B|---------------3----3--------------------|
G|-----------4--------2--------------------|
D|-0-0-0-2-4-5--------4--4--4--4--0-2-4----|
A|--------------------0--------------------|
E|-----------0-0---0--0-0-0-0-0-0-0-0-0----|
                      ↓

    G/D    D                  G/D    D
E|-----------------------------------------|
B|----3---3----------------------3--3------|
G|-4------2------------------4------2------|
D|-5------4--4--4--0--0-2-4--5------4--4---|
A|--------0-------------------------0------|
E|-0-0-0--0-0-0-0-0-0-0-0-0--0-0--0-0-0-0--|
          ↓                         ↓

           A A4               A
E|-----------------------------------------|
B|------------2h3--3-3-3-3-3-3-3-2---------|
G|------------2----2-2-2-2-2-2-2-2---------|
D|4--4--4\2-0-2----2-2-2-2-2-2-2-2---------|
A|------------0----0-0-0-0-0-0-0-0---------|
E|0-0-0-0----------------------------------|
              ↓    ↑ ↓ ↑ ↓ ↑ ↓ ↑ ↓

                  G/D  D
When I look into your  eyes
                        G/D    D
It´s like watching the night sky
                G/D  D
Or a beautiful sun__rise
                      A   A4  A
There´s so much they hold
                   G/D   D
And just like them old stars
                   G/D     D
I See that you´ve come so far
                   G/D D
To be right where you  are
                 A    A4  A
How old is your soul?

[Primeira Parte]

Parte 1:
    G/D       D              G/D    D
E|-----------------------------------------|
B|----3--------------------------3---------|
G|-4------2------------------4------2------|
D|-5------4--4--4--0--0-2-4--5------4--4---|
A|-----------------------------------------|
E|-0-0-0--0-0-0-0-0-0-0------0-0--0-0-0--0-|

Parte 2:
                   G/D      D
E|-----------------------------------------|
B|-------------------3---------------------|
G|----------------4-----2------------------|
D|-4---0-0-0-2-4--5-----4--4--4--4--4\2-0--|
A|-----------------------------------------|
E|-0-0------------0-0-0-0-0-0-0-0-0-0------|

Parte 3:
           A A4               A
E|-----------------------------------------|
B|--------2h3--3-3-3-3-3-3-3-2-------------|
G|--------2----2-2-2-2-2-2-2-2-------------|
D|--------2----2-2-2-2-2-2-2-2-------------|
A|--------0----0-0-0-0-0-0-0-0-------------|
E|-----------------------------------------|
          ↓    ↑ ↓ ↑ ↓ ↑ ↓ ↑ ↓

Parte 4:
          G/D    D
E|-----------------------------------------|
B|----------3------------------------------|
G|-------4-----2--2--2---2-----------------|
D|-0-2-4-5-----4-----------0-2-4-----------|
A|-----------------------------------------|
E|-0-----0-0-0-0-0-0-0-0---0---------------|

Parte 5:
   G/D     D                   G/D      D
E|-----------------------------------------|
B|---3-----------------------------3-------|
G|4-----2---------------------4--------2---|
D|5-----4--4--4---4----0-2-4--5--------4---|
A|-----------------------------------------|
E|0-0-0-0-0-0-0-0---0--0------0-0---0--0---|

Parte 6:
E|-----------------------------------------|
B|-----------------------------------------|
G|-----------------------------------------|
D|--4--4---4----4\2-0----------------------|
A|-----------------------------------------|
E|-0-0-0-0---0--0--------------------------|

Parte 7:
           A A4               A
E|-----------------------------------------|
B|--------2h3--3-3-3-3-3-3-3-2-------------|
G|--------2----2-2-2-2-2-2-2-2-------------|
D|--------2----2-2-2-2-2-2-2-2-------------|
A|--------0----0-0-0-0-0-0-0-0-------------|
E|-----------------------------------------|
          ↓    ↑ ↓ ↑ ↓ ↑ ↓ ↑ ↓

[Refrão 1]

             G5    D5(9)
I won´t give up on us
              Bm11     A
Even if the skies get rough
               G5      D5(9)
I´m giving you all my love
                  A  A4  A
I´m still looking up

Segunda Parte:
                         G/D   D
And when you´re needing your space
            G/D   D
To do some navi__gating
              G/D       D
I´ll be here patiently waiting
                 A    A4  A
To see what you find

[Segunda Parte]

              G/D    D
E|-----------------------------------------|
B|--------------3--------------------------|
G|-----------4-----2-----------------------|
D|-0-2-4-0---5-----4--4--4--4--0-2-4-------|
A|-----------------------------------------|
E|-0---------0-0-0-0-0-0-0-0-0-0-----------|

     G/D        D
E|-----------------------------------------|
B|------3----------------------------------|
G|--4--------2-----------------------------|
D|--5--------4--4--4--4--0-2-4-------------|
A|-----------------------------------------|
E|--0-0---0--0-0-0-0-0-0-0-----------------|

      G/D     D
E|-----------------------------------------|
B|------3----------------------------------|
G|---4-----2-------------------------------|
D|---5-----4--4--4--4--4\2-0---------------|
A|-----------------------------------------|
E|---0-0-0-0-0-0-0-0-0-0-------------------|

           A A4               A
E|-----------------------------------------|
B|--------2h3--3-3-3-3-3-3-3-2-------------|
G|--------2----2-2-2-2-2-2-2-2-------------|
D|--------2----2-2-2-2-2-2-2-2-------------|
A|--------0----0-0-0-0-0-0-0-0-------------|
E|-----------------------------------------|

[Refrão 2]

                 G5         D5(9)
Cause even the stars, they burn
           Bm11       A
Some even fall to the earth
          G5     D5(9)
We got a lot to learn
                 A     A4   A
God knows we´re worthy

No I won´t give up

( G7(9)  G9  G7(9)  G9 )

Passagem:
E|---------------------|
B|-7--------5----------|
G|---------------------|
D|---------------------|
A|-----5---------------|
E|-5-5---5--5-5---5----|

[Terceira Parte]

         Em
I don´t wanna be someone who walks away so easily
                                              A          A4  A
I´m here to stay and make the difference that I can make
     Em
Our differences they do a lot to teach us how to use

The tools, the skills we´ve got
               A           A4   A
Yeah we got a lot at stake
           C7M
And in the end, you´re still my friend

At least we didn´t tend
                                           A9/C#
For us to work we didn´t break, we didn´t burn

We had to learn how to bend

Without the world caving in
C7M                        A9/C#
I had to learn what I got, and what I´m not
          D5(9)
And who I am

[Refrão 3]
             G5    D5(9)
I won´t give up on us
              Bm11     A
Even if the skies get rough
            G5         D5(9)
I´m giving you all my love
                  Bm11  A
I´m still looking up

             G5    D5(9)
I won´t give up on us
               Bm11       A
God knows I´m tough, he knows
          G5     D5(9)
We got a lot to learn
                 A4  A
God knows we´re worthy

             G5    D5(9)
I won´t give up on us
              Bm11     A
Even if the skies get rough
               G       D5(9)
I´m giving you all my love
                  A
I´m still looking up
00:00 / 00:00
Outros vídeos desta música
Repetir
Outros vídeos desta música
Composição de Jason Mraz / Michael Natter
Colaboração e revisão:
  • Kévin Nascimento
  • Caroline Leroy
  • Diéfferson Santos
936.020 exibições
  • Simplificar cifra
    • ½ Tom
    • A
    • Bb
    • B
    • C
    • Db
    • D
    • Eb
    • E
    • F
    • F#
    • G
    • Ab
  • Adicionar à lista

    0 comentários

    Ver todos os comentários

    Entre para oCifra Club PRO

    Tenha acesso a benefícios exclusivos no App e no Site

    • Chega de anúncios

    • Prioridade de compra em lançamentos

    • Mais recursos no app do Afinador

    • Atendimento Prioritário

    • Descontos nos produtos Cifra Club

    • Ajude a produzir mais conteúdo

    00:00 / 00:00
    Capítulos
    • Início
    • Dicas iniciais
    • Tocando a música
    • Acordes da música
    • Tocando Introdução
    • Ensinando Introdução
    • Tocando Primeira Parte
    • Ensinando Primeira Parte
    • Tocando Refrão
    • Ensinando Ritmo do Refrão
    • Tocando Segunda Parte
    • Ensinando Segunda Parte
    • Acordes do Final
    • Tocando Passagem e Final
    • Ensinando Passagem
    • Ensinando Ritmo do Final
    • Encerramento

    Cifra Club Pro

    Aproveite o Cifra Club com benefícios exclusivos e sem anúncios
    Cifra Club Pro
    Aproveite o Cifra Club com benefícios exclusivos e sem anúncios
    OK