Cifra Club

Love Someone

Jason Mraz

Cifra: Principal (violão e guitarra)
exibições 133.016
Tom: D
(6ª corda afinada em ré)

[Primeira Parte]

 D5
Love is a funny thing

Whenever I give it, it comes back to me

And it’s wonderful to be

Giving with my whole heart

As my heart receives

[Dedilhado Primeira Parte]

Parte 1 (4x)

   D5
E|------------------------------------------|
B|------------3-----------------3-----------|
G|------------2-----------------2-----------|
D|---0-0--0---0--0---0-0---0----0--0--------|
A|------------0-----------------0-----------|
E|-0----0--0--0----0-----0---0--0-----------|
              ↓                 ↓

[Pré-refrão]

      G7M
Your love

Oh, ain’t it nice tonight
               D5
We've got each other
          G7M
And I am right beside you
                               D5
More than just a partner or a lover
           A
I’m your friend

[Dedilhado Pré-refrão]

Parte 1

  G7M
E|------------------------------------------|
B|---------------3-------------------3------|
G|---------------0-------------------0------|
D|---------------4-------------------4------|
A|---5-5----5----5--5----5-5----5----5--5---|
E|-5-----5----5--5-----5-----5----5--5------|
                 ↓                   ↓

Parte 2

   D5
E|------------------------------------------|
B|------------3-----------------3-----------|
G|------------2-----------------2-----------|
D|---0-0--0---0--0---0-0---0----0--0--------|
A|------------0-----------------0-----------|
E|-0----0--0--0----0-----0---0--0-----------|
              ↓                 ↓

Parte 3

  G7M
E|------------------------------------------|
B|---------------3-------------------3------|
G|---------------0-------------------0------|
D|---------------4-------------------4------|
A|---5-5----5----5--5----5-5----5----5--5---|
E|-5-----5----5--5-----5-----5----5--5------|
                 ↓                   ↓

Parte 4

   D5                  A
E|------------------------------------------|
B|--------------3---------------------------|
G|--------------2------2--------------------|
D|---0-0---0----0--0---2--------------------|
A|--------------0------0--------------------|
E|-0-----0---0--0---------------------------|
                ↓      ↓

[Refrão]

          G7M
When you love someone
      D5                 A
Your heartbeat beats so loud
          G7M
When you love someone
      D5                   A
Your feet can’t feel the ground

Bm           G7M
   Shining stars all seem
    D5          A
To congregate around your face
          G7M
When you love someone
    D5    A       D5
It comes back to you

[Dedilhado Refrão]

  G7M
E|------------------------------------------|
B|------------------------------------------|
G|---0----0----0----0----0----0----0-----0--|
D|-----4----4----4---------4----4----4------|
A|-5-------------------5--------------------|
E|-5-----5----5----5---5-----5----5----5----|

[Segunda Parte]


And love is a funny thing

It’s making my blood flow with energy

And it’s like an awakened dream

As what I've been wishing for

Is happening

[Dedilhado Segunda Parte]

  G7M
E|------------------------------------------|
B|------------------------------------------|
G|---0----0----0----0----0----0----0-----0--|
D|-----4----4----4---------4----4----4------|
A|-5-------------------5--------------------|
E|-5-----5----5----5---5-----5----5----5----|

[Pré-refrão]

                   G7M
And it's right on time

Oh, ain't it nice this life 
               D5
We've got each other?
      G7M
I am right beside you
                               D5
More than just a partner or a lover
           A
I’m your friend

[Refrão]

          G7M
When you love someone
      D5                 A
Your heartbeat beats so loud
          G7M
When you love someone
      D5                   A
Your feet can’t feel the ground

Bm           G7M
   Shining stars all seem
    D5          A
To congregate around your face
          G7M
When you love someone
          A
When you love someone

[Terceira Parte]

D5
   We’re gonna give ourselves 
    Bm
To love tonight
D5                           Bm
   Lifting up to touch the starlight
             A
And we will savor every second
     G7M
We spend together
           D5
You and I will
           A
You and I will
           G7M  D5  A
You and I will

[Dedilhado Terceira parte]

   D5               A
E|------------------------------------------|
B|---3-------3------------------------------|
G|-----2-------2------2-------2-------------|
D|-0-----0-0-----0------2-------2-----------|
A|------------------0-----0-0-----0---------|
E|------------------------------------------|

[Refrão]

          G7M
When you love someone
      D5                 A
Your heartbeat beats so loud
          G7M
When you love someone
      D5                   A
Your feet can’t feel the ground

Bm           G7M
   Shining stars all seem
    D5          A
To congregate around your face
          G7M
When you love someone
    D5    A       D5
It comes back to you
Acordes para:

    0 comentários

      mostrar mais comentários

      Conseguiu tocar?

      17tocaram0ainda não

      Grave um vídeo tocando Love Someone e mande pra gente!

      00:00 / 00:00
      outros vídeos desta música
      repetirqualidadeAutomático
      Outro vídeos desta música
        00:00 / 00:00
        Capítulos
        • Tocando a música
        • Apresentação / Equipamentos
        • Afinação
        • Acordes Primeira Parte
        • Tocando Primeira Parte
        • Dedilhado Primeira Parte
        • Acordes Pré-refrão
        • Tocando Pré-refrão
        • Dedilhado Pré-refrão
        • Dedilhado Pré-refrão - Parte 1 de 4
        • Dedilhado Pré-refrão - Parte 2 de 4
        • Dedilhado Pré-refrão - Parte 3 de 4
        • Dedilhado Pré-refrão - Parte 4 de 4
        • Acordes Refrão
        • Tocando Refrão
        • Dedilha e ritmo do Refrão
        • Dicas Segunda Parte - Pré-refrão
        • Tocando Segunda Parte e Pré-refrão
        • Dedilhado Segunda Parte
        • Dicas Segundo Refrão
        • Tocando Segundo Refrão
        • Ritmo Segundo Refrão
        • Dicas Terceira Parte
        • Tocando Terceira Parte
        • Dedilhado Terceira Parte - Parte 1 de 2
        • Dedilhado Terceira Parte - Parte 2 de 2
        • Dicas finais
        • Tocando final
        • Encerramento
        OK