Notificações Amigos pendentes

      Jay Vaquer

      Ah, Mas Bem Que Você Gosta

      1.676 exibições
      Tom: D#
      Riff 1:
      
      
      E|------------------
      B|------------------
      G|------------------
      D|9-9-8-8-6-6-------
      A|------------6-6---
      E|------------------
      
      
      9x (ou 4x só a intro + 5x cantando)
      
      Riff 1 parte 2
      
      E|----------------|
      B|----------------|
      G|----------------|  (4x)
      D|8-8-6-6---------|
      A|--------9-9-6-6-|
      E|----------------|
      
      
      Lick 1:
      
      E|-------------|
      B|11-9----5-4--|
      G|-----10------|
      D|-------------|
      A|-------------|
      E|-------------|
      
      
      Lick 2:
      
      E|16-14--13--16-13--14|
      B|--------------------|
      G|--------------------|
      D|--------------------|
      A|--------------------|
      E|--------------------|
      
      
      Verso: (Riff 1)
      B5
      Muito além do amasso
      (B5)
      Era um chute nos bagos, era um soco no baço
      (B5)                           D#5 (Riff 1 parte 2 + Lick 1)
      Pelo maior pedaço de meu coração
      B5
      Muito além do cansaço
      (B5)
      Era um  tiro nos córneos , era o maior sanhaço
      (B5)                                D#5 (Riff 1 parte 2 + Lick 1)
      Era um erro crasso, qualquer condição
      
          B5
      Então passou a odiar
                                D#5
      Até a minha quinta geração
      (D#5)
      E perdeu as estribeiras
          B5
      Então passou a comentar
                                       D#5
      Que eu era o professor do gramunhão
      (D#5)
      Quis me empurrar da ribanceira
      
      Ebm Eb5(9) Ebm7 B9 (Lick 2) Ebm Eb5(9) Ebm7 B9
                            G#5
      Agora não passo de um bosta
      Riff 2
      
      E|--------------------
      B|--------11----------
      G|8-10-11----11-10-11-
      D|--------------------
      A|--------------------
      E|--------------------  4x
      
      
                           B5
      Ah, mas bem que você gosta
                        G#5
      De deixar a mesa posta
      Riff 2 parte 2:
      
      E|--------9----------|
      B|-------------------|
      G|8-10-11---11-10-11-|  (2x)
      D|-------------------|
      A|-------------------|
      E|-------------------|
      
      
           Ebm           Eb5(9)
      Pra cair matando, chafurdando
      Ebm7          B9       Eb7(9)
      Lambuzando a cara toda
      
      ( Ebm  Eb5(9)  Ebm7  B9 )
      Co- pró-   fa-   ga
      Coprófaga
      
      Agora não passo de um bosta...
        Composição: Jay VaquerColaboração e revisão:
        • Ric Hard Oak

        Comentários 1

        140 .
        • johnkie johnkie: Em 31/12/2015 15:50

          Que música maravilhosa, puta que pariu Jay!

        140 cancelar

        conseguiu tocar?

        covers

        Grave um vídeo tocando Ah, Mas Bem Que Você Gosta e mande pra gente!

        Ex.: http://www.youtube.com/watch?v=0IvSvIwGdwk
        ver covers de outras músicas »
        0:00 / 0:00

        Capítulos

          1 versão de violão dificuldade exibições contribuição e correção
          1 versão de guitarra dificuldade exibições contribuição e correção
          1 versão de cavaco dificuldade exibições contribuição e correção
          1 versão de teclado dificuldade exibições contribuição e correção
          play/pausefechar subir/descer velocidade
          6ª corda E5ª corda A4ª corda D3ª corda G2ª corda B1ª corda E
            acordes
            publicidade
            fechar
            ok